a b c d e f g h i j k l m n o p q r s t u v w x y z 0-9

La Razon Que Te Demora

La Renga

			
La línea de bajo comienza después de la introducción de guitarra y voz. 
Se mantiene en volumen bajo durante el resto de la canción.

Durante el tema se van alternando estos tres únicos Riffs...

Más abajo se detalla el órden...

RIFF 1

G |------------------------------------------
D |------------0--0-0--0---------------------
A |--2--2-2--2---------------------5--5-5-4--
E |----------------------3--3-3--3-----------


RIFF 2

G |-------------------------------------------------------------------------------------------
D |-------------------------------------------------------------------------------------------
A |------------0--0-0--0-----------2--2-2--2-----------5--5-5--5------------------------------
E |--2--2-2--2-----------2--2-2--2-----------3--3-3--3------------2-2--2-2-2--2-2-2--2-2-2-2--


RIFF 3 FUNCIONA COMO PUENTE Y PARA FINAL SE TOCA TRES VECES

G |---------------------------------------------------------------
D |---------------------------------------------------------------
A |-------5--7---------7--5---------------------------------------
E |-7-5-7--------7-5-7--------------------------------------------


Estas son las partes el tema :

Esta parte no lleva línea de bajo :

Hay un destino que no tiene pruebas . . .

Será un camino que no tiene huella . . .

Acá entra el bajo lento y despacio:

Hay un siempre para la batalla . . .

RIFF 1

G |------------------------------------------
D |------------0--0-0--0---------------------
A |--2--2-2--2---------------------5--5-5-4--
E |----------------------3--3-3--3-----------


Si hay una sombra para cada luz . . .

RIFF 1

G |------------------------------------------
D |------------0--0-0--0---------------------
A |--2--2-2--2---------------------5--5-5-4--
E |----------------------3--3-3--3-----------


Quizá el destino sea una mentira . . .

RIFF 2

G |-------------------------------------------------------------------------------------------
D |-------------------------------------------------------------------------------------------
A |------------0--0-0--0-----------2--2-2--2-----------5--5-5--5------------------------------
E |--2--2-2--2-----------2--2-2--2-----------3--3-3--3------------2-2--2-2-2--2-2-2--2-2-2-2--


RIFF 3
 
G |--------------------------
D |--------------------------
A |-------5--7---------7--5--
E |-7-5-7--------7-5-7-------

G |--------------------------
D |--------------------------
A |-------5--7---------7--5--
E |-7-5-7--------7-5-7-------


La ruta sigue mas allá . . .

RIFF 1

G |------------------------------------------
D |------------0--0-0--0---------------------
A |--2--2-2--2---------------------5--5-5-4--
E |----------------------3--3-3--3-----------


Secando al ojo de la lágrima . . .

RIFF 1

G |------------------------------------------
D |------------0--0-0--0---------------------
A |--2--2-2--2---------------------5--5-5-4--
E |----------------------3--3-3--3-----------

 
Como un relámpago en la fría noche . . .

RIFF 1

G |------------------------------------------
D |------------0--0-0--0---------------------
A |--2--2-2--2---------------------5--5-5-4--
E |----------------------3--3-3--3-----------


Esos que guardan a la sombra . . .

RIFF 1

G |------------------------------------------
D |------------0--0-0--0---------------------
A |--2--2-2--2---------------------5--5-5-4--
E |----------------------3--3-3--3-----------


Hay algo extraño ahí del otro lado . . .

RIFF 2

G |-------------------------------------------------------------------------------------------
D |-------------------------------------------------------------------------------------------
A |------------0--0-0--0-----------2--2-2--2-----------5--5-5--5------------------------------
E |--2--2-2--2-----------2--2-2--2-----------3--3-3--3------------2-2--2-2-2--2-2-2--2-2-2-2--


Solo de guitarra . . .

El solo se acompaña con Riff 1 dos veces y luego el Riff 2 una vez y termina con el Riff 3 para comenzar la segunda parte.


El bajo deja de tocar en estas líneas y quedan las guitarras como al principio

Hay un destino que no tiene pruebas...

Ya habrá muerto con una verdad olvidada en tu memoria...

Será un destino que no tiene huellas...

Acá vuelve a entrar:

Habrá un siempre para la batalla...

RIFF 1

G |------------------------------------------
D |------------0--0-0--0---------------------
A |--2--2-2--2---------------------5--5-5-4--
E |----------------------3--3-3--3-----------


Si hay una sombra para cada luz...

RIFF 1

G |------------------------------------------
D |------------0--0-0--0---------------------
A |--2--2-2--2---------------------5--5-5-4--
E |----------------------3--3-3--3-----------


Quizá el destino sea una mentira...

RIFF 2

G |-------------------------------------------------------------------------------------------
D |-------------------------------------------------------------------------------------------
A |------------0--0-0--0-----------2--2-2--2-----------5--5-5--5------------------------------
E |--2--2-2--2-----------2--2-2--2-----------3--3-3--3------------2-2--2-2-2--2-2-2--2-2-2-2--


El final del tema se hace de la siguiente manera:

Riff 3......3 veces

G |--------------------------
D |--------------------------
A |-------5--7---------7--5--
E |-7-5-7--------7-5-7-------

G |--------------------------
D |--------------------------
A |-------5--7---------7--5--
E |-7-5-7--------7-5-7-------

La última vez se queda en la última nota que es un Re y se toca varias veces reduciendo velocidad 

G |----------------------------
D |----------------------------
A |-------5--7---------7--55555
E |-7-5-7--------7-5-7---------


Y por último y para terminar se toca fuerte una sola vez la nota Si, en el 2º de la 5º cuerda o de la 3º, en el bajo.

G |----------------------------
D |----------------------------
A |--2-------------------------
E |----------------------------

La línea de bajo es sencilla y comparte tonalidad con los acordes de las guitarras.

Espero que les sirva de ayuda y que toquen mucho este tema que está genial.

Gracias por visitar esta página !!!!.

LORD_TAURO Dedicado a mis mejores amigos y amigas, todos fanas de LA RENGA !!!

AGUANTE LA RENGA !!!!

Fuente original ATAME [www.atame.org]
Colaborador original: LoRd_TaUro [lord_tauro1610@hotmail.com]

Fuente: tusacordes.com