a b c d e f g h i j k l m n o p q r s t u v w x y z 0-9

La Razon Que Te Demora

La Renga

			
Intro sin distorsión: arpegios de B D G D Dsus4-D 
El arpegio es algo así:
 
        B                     D                       G                                           
1-----------------------------------------2----------------------3----------
2---------------------------------------------3---------------------0-------
3--------------5--------------------2-------------2----------0----------0---
4----------5--------5---------0---------------------------------------------
5------2----------------2---------------------------------------------------
6------------------------------------------------------3--------------------


     D       D4-D          repite.
1------------32 -------------------------------------------------------------------
2--------3---------3--------------------------------------------------------------
3----------------------0--------------------------------------------------------
4----0------------------------------------------------------------------------------
5----------------------------------------------------------------------------------
6--------------------------------------------------------------------------------

Primer estrofa igual que intro

Hay  un destino que no tiene pruebas
por eso esta historia,
puede que muera con una verdad
olvidada en tu memoria.

 1Cuando cambia a F#5 se puede hacer así creo:
  F#5                     A5                     F#5                  B5
 Sera un camino...
1----------0------------------------0-------------------------0--------------------------
2----------0------------------------0-------------------------0--------------------------
3----------0------------------------0-------------------------0----------------5---------
4----5---------------------7----------------------5-----------------------5--------5-----
5----5---------------------7----------------------5-------------------2---------------0--
6----2---------------------5----------------------2--------------------------------------


    G                     D                    F#5

1------------3--------------------2-------------------0-------------0--0---
2---------------0---------------------3---------------0-------------0--0---
3--------0-----------0-------2-----------2---------------------------------
4-------------------------0----------------------5---------5---5-----------
5------------------------------------------------5---------5---5-----------
6---3--------------------------------------------2---------2---2-----------


Será un camino que no tiene huellas                                           
la suerte que le ha tocado a la estrella
que te ha de guiar.

Ahora repite y es algo parecido pero con distorsion

Hay un siempre para la batalla
la razón que te demora,
si hay una sombra para cada luz 
corras a donde corras

Quizá el destino sea una mentira
quizá lo único que quería la vida era 
terminar con vos.

Intermedio:(B5   D5-E5  B5   E5-D5) x2

B5              D5
La ruta sigue más allá
          G5           D5    D5-C#5-B5
de las luces de la autopista,
B5                   D5
secando al ojo de la lagrima
       G5       D5     D5-C#5-B5
te perderás de vista.

Repite como estrofa anterior

Como un relámpago en la fría noche
cruzarás los abismos,
esos que guardan a la sombra
que te ocultan de vos mismo.

Cambia a F#5 y hace algo parecido a lo de mas arriba. Ver 1

Hay algo extraño ahí del otro lado
que te teme y te da la mano
para llegar hasta vos.

Solo
Repite intermedio
Repite primera parte
Final: Repite el intermedio varias veces

Bueno me despido espero que le sirva a alguien aunque hay que mejorarlo 
porque debe tener muchos errores. Hay que mejorar los arpegios del intro.
Del solo saque muy poco pero si alguien lo saca por favor que me lo mande por mail.

Fuente original ATAME [www.atame.org]
Colaborador original: Darío Pastorino [gatorocker_77@hotmail.com]

Fuente: tusacordes.com