a b c d e f g h i j k l m n o p q r s t u v w x y z 0-9

La Razón Que Te Demora

La Renga

			
ESTABA VIENDO VARIOS POST, Y CREO QUE ESTE ES EL MEJOR...IGUAL, ESPERO SUS COMENTARIOS..AGUANTE LA RENGA!

HAY MUCHOS RIFF, PERO SON FACILES, Y TE COMBIENE ESCUCHAR EL TEMA PARA SACAR LOS RITMOS.. ;)

http://www.tusacordes.com/Images/acordes/d.gif 
http://www.tusacordes.com/Images/acordes/g.gif 
http://www.tusacordes.com/Images/acordes/fsos.gif http://www.tusacordes.com/Images/acordes/a.gif 
http://www.tusacordes.com/Images/acordes/bm.gif

Tambien vas unas acordes que no se como se llaman, que son estas:
1|-------  1|-------  1|-------  1|-------  1|-------
2|-------  2|-------  2|-------  2|-------  2|-------
3|---3---  3|---4---  3|---5---  3|---6---  3|---8--- Llamemoslas
4|-----4-  4|-----5-  4|-----6-  4|-----7-  4|-----9-    así:
5|-2-----  5|-3-----  5|-4-----  5|-5-----  5|-7-----
6|-------  6|-------  6|-------  6|-------  6|-------
     M          N          L          K          P

 Riff 1
1|----2-----2-3-2------3-----2-3-2--      
2|-----3---3-----3------0---3-----3-      
3|------4-2--------------0-2-------- (x3)
4|--4----0----------------0---------     
5|-2-----------------2--------------     
6|------------------3---------------     

 Riff 2
1|----------------2-----2-3-2------3-----2-3-2--3-3-
2|---2---2---2-----3---3-----3------0---3-----3-3-3-
3|---2---2---2------4-2--------------0-2--------3-3-
4|---4---4---4--4----0----------------0-------------
5|--4---4---4--2-----------------2------------------
6|-2---2---2--------------------3-------------------

 Riff 3
1|-----------------------------
2|-----------------------------
3|-8/9-8/9-8/9-8/9-8/9-8/9-8/9-
4|-----------------------------
5|-----------------------------
6|-----------------------------

 Riff 4
1|---------------
2|---------------
3|-9~-9~-12~-12~-
4|---------------
5|---------------
6|---------------

 Riff 5
1|---------
2|---------
3|-7-7-7-7-
4|---------
5|---------
6|---------

 Riff 6
1|-----------------------------
2|-----------------------------
3|-5-6-5-6-5-6-5-6-5-6-5-6-5-6-
4|-----------------------------
5|-----------------------------
6|-----------------------------

 Riff 7
1|-----------------------------
2|-----------------------------
3|-3-4-3-4-3-4-3-4-3-4-3-4-3-4-
4|-----------------------------
5|-----------------------------
6|-----------------------------

 Intro: Riff 1 (x3)

 Riff1
Hay un destino que no tiene pruebas por eso esta historia
 Riff1
puede que muera con una verdad olvidada en tu memoria
 Riff2
será un camino que no tiene huella
la suerte que le ha tocado a la estrella que te ha de guiar.

http://www.tusacordes.com/Images/acordes/bm.gif                  http://www.tusacordes.com/Images/acordes/d.gif                                http://www.tusacordes.com/Images/acordes/g.gif                              http://www.tusacordes.com/Images/acordes/d.gif   
Hay un siempre para la batalla y la razón que te demora
http://www.tusacordes.com/Images/acordes/bm.gif                  http://www.tusacordes.com/Images/acordes/d.gif                            http://www.tusacordes.com/Images/acordes/g.gif                           http://www.tusacordes.com/Images/acordes/d.gif
si hay una sombra para cada luz corras adonde corras
http://www.tusacordes.com/Images/acordes/fsos.gif             http://www.tusacordes.com/Images/acordes/a.gif 
quizá el destino sea una mentira
http://www.tusacordes.com/Images/acordes/fsos.gif              http://www.tusacordes.com/Images/acordes/bm.gif                            http://www.tusacordes.com/Images/acordes/g.gif                    http://www.tusacordes.com/Images/acordes/d.gif                                              http://www.tusacordes.com/Images/acordes/fsos.gif
quizá lo único que quería la vida era terminar con vos.

 M - L - K - P
 M - L - P - K
 M - L - K - P
 M - L - P - K

 M             L                K             P           K N M
La ruta sigue más allá de las luces de la autopista
 M                      L         K        P              K N M
secando al ojo de la lágrima te perderás de vista
 M                      L               K           P     K N M
como un relámpago en la fría noche, cruzarás los abismos
 M                      L             K            P      K N M
esos que guardan a la sombra que te oculta de vos mismo.

http://www.tusacordes.com/Images/acordes/fsos.gif             http://www.tusacordes.com/Images/acordes/a.gif
Hay algo extraño ahí del otro lado
http://www.tusacordes.com/Images/acordes/fsos.gif        http://www.tusacordes.com/Images/acordes/bm.gif
que te teme y te da la mano
http://www.tusacordes.com/Images/acordes/g.gif  http://www.tusacordes.com/Images/acordes/d.gif
para llegar hasta vos.

1|--------------------------------------------------------------
2|------------------------------------(10)-(10)-(10)-----8-7~-9-
3|---------------------------6/8~-9-8----------------(9)--------
4|-2-2-2-2-2-2-------------2------------------------------------
5|-4-4-4-2-2-2-5-5-5-4-4-4-2------------------------------------
6|-3-3-3-------5-5-5-3-3-3--------------------------------------
                  Tocar la cuerda 1 con la cuerda 2 estirada.
1|-----------------------------------5--------------------------
2|-10-12-10-12-7~-9-10~-6-5-3-5-3-(5)---------------------------
3|---------------------------------------------------2/7~-------
4|-------------------------------------------------7------------
5|-------------------------------------9-8-9-7-5-7--------9-10--
6|--------------------------------------------------------------

1|---------------------------------7-9-10-9-7-------------------
2|-------------6---10-------7-8-10------------15-17-15-17-15-14-
3|-----------8---9----6-7-9-------------------------------------
4|-----9-7-6----------------------------------------------------
5|-8-7----------------------------------------------------------
6|--------------------------------------------------------------
  Tocar el cuerda 3 [10] manteniendo la cuerda 2 estirada [(9)]
1|--------------------------------------------------------------
2|-14-10-9-(10)-(10)-(10)-(9)-----------------------------------
3|----------------------------10-10-9-(9)-(9)-(9)-(9)-(9)-(9)---
4|--------------------------------------------------------------
5|--------------------------------------------------------------
6|--------------------------------------------------------------

 M - L - K - P Riff 3
 M - L - P - K Riff 4
 M - L - K - P Riff 5
 M - L - P - K

 Riff 1
Hay un destino que no tiene pruebas por eso esta historia
 Riff1
ya habrá muerto con una verdad olvidada en tu memoria
 Riif 2
será un camino que no tiene huella
la suerte que le ha tocado a la estrella que te ha de guiar.
 M                     L            K               P     K N M
Habrá un siempre para la batalla y la razón que te demora 
 M                      L         K             P         K N M
si hay una sombra para cada luz corras adonde corras
http://www.tusacordes.com/Images/acordes/fsos.gif             http://www.tusacordes.com/Images/acordes/a.gif
quizá el destino sea una mentira
http://www.tusacordes.com/Images/acordes/fsos.gif             http://www.tusacordes.com/Images/acordes/bm.gif               http://www.tusacordes.com/Images/acordes/bm.gif                             http://www.tusacordes.com/Images/acordes/d.gif                      
quizá lo único que quería la vida era
  http://www.tusacordes.com/Images/acordes/g.gif      http://www.tusacordes.com/Images/acordes/fsos.gif
terminar con vos.

 M - L - K - P
 M - L - P - K Riff 6
 M - L - K - P Riff 4
 M - L - P - K Riff 7
 M - L - K - P - P - P - P - P
 M - L - P - K - K - P - L - M [la segunda K, vuelve con slide]
 M - L - K - P Riff 4
 M - L - P - K
 M - M

Fuente (letra): musica.com

Fuente: Tusacordes