a b c d e f g h i j k l m n o p q r s t u v w x y z 0-9

La Nave Del Olvido

La Renga

			
La Nave Del Olvido

v - vibrato
= - ligada
- estirada

Riff 1 intro

|----------------2-3-2-3-2-------------|
|----------------3---------3-----------|
|----------------2-----------2---------|
|------0=2-----------------------------|
|--5v------2-0-------------------------|
|--3---------------------------3-------|


riff 2

|--2-----------------|
|--3-----------------|
|--2-----------------|
|----0-4-2-0---------|
|--------------------|
|------------3-------|


G             D
Hoy voy a bailar  
                       riff 2
G                D
a la nave del olvido
                       riff 2  
G             D 
olvido mi gotera
                       riff 2
G                 D
y mi racion criminal

riff 3
                C
|--2------------0-----|
|--3------------1-----|
|--2------------0-----|
|----0-4-2-0----2-----|
|---------------3-----|
|---------------0-----|

C                             G
perfumes baratos, ambientes picados

C                              D
discos rayados, ya quiero despegar.



D            A 
Hoy voy a bailar  
                       riff 2
D                 A
a la nave del olvido
                       riff 2  
D               A
olvido mis hermanos
                       riff 2
D                 A
estampitas de estacion


G                        D
veni morocha que vamos a dar

G                  A                           
una vuelta al chaperio                        

G                             D    
la perito esta desierta y la luna

           A                 Bm          
que se a posado sobre los techos

A - G# - G# - G - G - G - G - G - G - G# - A

         D
de pompeya.


1 solo

|-------------------------------------------7----7-10-10-9-7----7-----------------12-10-|
|---------------------------------------------10-------------10---10-9-10-9-7-9-7-------|
|--9-9-9-7-9-------7-9-9-9-9-7----------------------------------------------|
|------------------7-7-9----------------------------------------------------------------|
|---------------------------------------------------------------------------------------|
|---------------------------------------------------------------------------------------|


|-15-13-12-13-15-13-12-13-12-10-12-10-----------------|
|-------------------------------------10v-------------|
|-----------------------------------------------------|
|-----------------------------------------------------|
|-----------------------------------------------------|
|-----------------------------------------------------|


hoy voy a bailar
a la nave del olvido
olvido mis hermanos, yeah
y mi racion criminal
zapatos embarrados, vuelvo algo mareado
esquivando charcos, todo va a despertar
la perito sigue desierta y el sol
que hizo invisible a la luna.

DE POMPEYA.

Fuente: tusacordes.com