a b c d e f g h i j k l m n o p q r s t u v w x y z 0-9

La Nave Del Olvido

La Renga

			
El bajo entra en la segunda vuelta con la bata

4 Veces
Hoy voy a bailar....
G------------------
D-------------------
A--5--55--------4-2
E---------55-----

Veni morocha...
G------------------------------------------
D--------------------------------------------
A-------------5-55-5-55----------------------
E---3-33-3-33------------3-33-3-33---5-55-5-55

La perito...
G-------------------------------------------
D-------------------------------------------
A----------------5--55-----------------------
E---3333-3-33--------5-55--77-55-3-33-44-5

Primero solo No se como es.

4 Veces
Hoy voy a bailar....
G------------------
D-------------------
A--5--55--------4-2
E---------55-----

Sapatos embarrados....
G------------------------------------------
D--------------------------------------------
A-------------5-55-5-55----------------------
E---3-33-3-33------------3-33-3-33---5-55-5-55

La perito...
G-------------------------------------------
D-------------------------------------------
A----------------5--55-----------------------
E---3333-3-33--------5-55--77-55-3-33-44-5


Segundo solo
Cuatro veces
G------------------
D-------------------
A--5--55--------4-2
E---------55-----

G------------------------------------------
D--------------------------------------------
A-------------5-55-5-55----------------------
E---3-33-3-33------------3-33-3-33---5-55-5-55

-Despues del solo viene

La perito...
G-------------------------------------------
D-------------------------------------------
A----------------5--55-----------------------
E---3333-3-33--------5-55--77-55-3-33-44-5

Fuente original ATAME [www.atame.org]
Colaborador original: Hernan ciappolino [hernanciappolino@hotmail.com]

Fuente: tusacordes.com