a b c d e f g h i j k l m n o p q r s t u v w x y z 0-9

La Nave Del Olvido

La Renga

			
F#            C#
Hoy voy a bailar          pasaje1
F#               C#
a la nave del olvido      pasaje1
F#           C#
olvido mi gotera          pasaje1
F#                C#
y mi racion criminal      pasaje1
B                             F#
Perfumes baratos, ambientes picados
B                              C#
discos rayados, ya quiero despegar.


Hoy voy a bailar               pasaje2
a la Nave del Olvido,          pasaje1
olvido mis hermanos,           pasaje1 
y estampitas de estacion.      pasaje1
Veni morocha que vamos a dar
una vuelta al chaperio.

B                             F#
La Perito esta desierta y la luna
            C#              Bbm   
que se ha posado sobre los techos.
G3 - F# - G - G# - C#      F#
                     De pompeya.
Solo 1:

Base:F#-C#-F#-B-F#-C#-Bbm-B-F#

E------------------------------------------------------
B-11-11-9-7-9-------7-9ligado11-9ligado11-9ligado11-9--
G-------------6-6-8----------------------------------11
D------------------------------------------------------
A------------------------------------------------------
E------------------------------------------------------

E-11-14-11-11-13-14-14-11----11-------------------16-14-14
B-------------------------14----14-13-14-11-12-11---------
G---------------------------------------------------------
D---------------------------------------------------------
A---------------------------------------------------------
E---------------------------------------------------------

E-19up-19down-18-19-19up-19lig18-19lig18---------------------------
B----------------------------------------19lig18-19lig18-16lig14-14
G------------------------------------------------------------------
D------------------------------------------------------------------
A------------------------------------------------------------------
E------------------------------------------------------------------

Hoy voy a bailar,
a la nave del olvido,
olvido a mis hermanos, yea, 
y mi racion criminal.
Zapatos embarrados, vuelvo algo mareado
esquivando charcos no logro despertar.
La Perito sigue desierta y el sol
que hizo invisible a la luna.
La Perito sigue desierta y el sol
que se ha posado sobre los techos
de Pompeya.

Solo2:

Base: F#-C# X4-B-B-F#-F#-B-B-C#-C#-F#

PASAJE1:

E-------------------------------------
B-------------------------------------
G-------------------------------------
D-3-1---------------------------------
A-----4-------------------------------
E-------------------------------------

PASAJE2:

E-----9------------
B-7-9---9LIG7-7----
G------------------
D------------------
A------------------
E------------------

Fuente original ATAME [www.atame.org]
Colaborador original: Juan kfizzo Gasser [juanlarenga@hotmail.com]

Fuente: tusacordes.com