a b c d e f g h i j k l m n o p q r s t u v w x y z 0-9

La Nave Del Olvido

La Renga

			
Esta es una revisión del primer solo que muestra en la página,
creo que está bastante mejorado.


EXPLICACIONES

´: estirar
^: estirar y bajar, y luego ligar.
: ligar


E|---------------------------------------7--------7--10-
B|--------------------------------------------10--------
G|-9´´--9^^7-9------------7--9´9´9´-9--7----------------
D|-------------7----7--9--------------------------------
A|------------------------------------------------------
E|------------------------------------------------------

E|-109---------------------------------10´-10----12´--
B|------10----10--10´-10910--9-10-9------------------
G|-----------------------------------------------------
D|-----------------------------------------------------
A|-----------------------------------------------------
E|-----------------------------------------------------
                            
                                                    
E|1210-12--15´--1513-15--1513-101310---------------
B|----------------------------------------10------------
G|------------------------------------------------------
D|------------------------------------------------------
A|------------------------------------------------------
E|------------------------------------------------------
         
Javier
Para dudas, consultas o colaboraciones:
		javier_pimas@yahoo.com

Fuente original ATAME [www.atame.org]
Colaborador original: Javier P. [javier_pimas@yahoo.com]

Fuente: tusacordes.com