a b c d e f g h i j k l m n o p q r s t u v w x y z 0-9

La Balada Del Diablo Y La Muerte

La Renga

			
TABLATURAS:

INTRO:

E|--------0------------------------------3-2----|---------------------|------|
B|--------0-----------3-5-3-----3--------3----3-|-----2-------------*-|--2---|
G|--------0--------0---------4--------2--2------|-----2--2-4-2--0-----|--2---|
D|-----2---------------------------0------------|-----2---------------|--2---|
A|----------------------------------------------|--0----------------*-|--0---|
E|--0--------0---3------------------------------|---------------------|------|


SOLO:
E|-------------------------------------------------------------------------------------|
B|-10/--17--10--17/--15--13--15--13--12--13--------------------------------------------|
G|-----------------------------------------------12----------14------12----------12----|
D|-------------------------------------------14------12--10------14------12--10--------|
A|-------------------------------------------------------------------------------------|
E|-------------------------------------------------------------------------------------|

E|---------------------------------------------------------------------------15--------|
B|------------------------------------------------------12--13--13--15/--17------17----|
G|------12-----------------------------------------------------------------------------|
D|--14------12--10--12--10--12--10--12--14--12--10--12---------------------------------|
A|-------------------------------------------------------------------------------------|
E|-------------------------------------------------------------------------------------|

E|--------------------------15------------------15--13--12--15--13--12--15--13--12-----|
B|--15--13--15--13--12--13------13--12--13--12-----------------------------------------|
G|-------------------------------------------------------------------------------------|
D|-------------------------------------------------------------------------------------|
A|-------------------------------------------------------------------------------------|
E|-------------------------------------------------------------------------------------|

E|--15--13--12--15--13--12--15--13--12--15--17--17-----------------------------------------|
B|--------------------------------------------------15--17--18--17--15--17--18--17--15--17-|
G|-----------------------------------------------------------------------------------------|
D|-----------------------------------------------------------------------------------------|
A|-----------------------------------------------------------------------------------------|
E|-----------------------------------------------------------------------------------------|


E|--17--19--20--19--17--17---17--19--20-->22-->22-->22-->22--22--20--19--20--19--17--19--17-----17-|
B|-------------------------------------------------------------------------------------------17----|
G|-------------------------------------------------------------------------------------------------|
D|-------------------------------------------------------------------------------------------------|
A|-------------------------------------------------------------------------------------------------|
E|-------------------------------------------------------------------------------------------------|

Fuente: Tusacordes