a b c d e f g h i j k l m n o p q r s t u v w x y z 0-9

La Balada Del Diablo Y La Muerte

La Renga

			
INTRO:
GUITARR:

Mim Sol RE la
e|-----0------------------------3p2-------------------------|
B|-----0-------------------3-3--3------3--2-2--2------------|
G|-----0-------------------2-2------------2-2--2--2p0-------|X4 
D|-----2---------2p0-------0-0-------0----2-2--2------2p0---| 
A|---2----------------2-------------------0-0--0------------|
E|-0-----0-2-3-3--------------------------------------------|

VERS 1: 

Mim Sol RE la
e|-----0------------------------3p2-------------------------|
B|-----0-------------------3-3--3------3--2-2--2------------|
G|-----0-------------------2-2------------2-2--2--2p0-------|X6
D|-----2---------2p0-------0-0-------0----2-2--2------2p0---| 
A|---2----------------2-------------------0-0--0------------|
E|-0-----0-2-3-3--------------------------------------------|

Mim Sol
Estaba el diablo mal parado 
Re La
en la esquina de mi barrio
Mim Sol
Ahì donde dobla el viento
Re La
y se cruzan los atajos.

Mim Sol
Al lado de el estaba la muerte
Re La
con una botella en la mano,
Mim Sol
me miraba de reojo 
Re La
y se reìan por lo bajo.

Mim Sol
Y yo que esperaba no se a quien
Re La
al otro lado de la calle del otoño
Mim Sol
una noche de bufanda
Re La
que me encontró desvelado

Mim Sol
entre dientes, oì a la muerte 
Re La Si
que decìa, que decìa asì:


Chours:

Lam Do
Cuantas veces se abra escapado
Sol Re
como laucha por tirante
Lam Do
y esta noche que no cuesta nada,
Sol Re
ni siquiera fatigarme

Lam Do
podemos llevarnos un cordero 
Sol Re Lam
con solo cruzar la calle


VERSO 2: igual

MIm Sol
Yo me escondì tras la niebla
y mire al infinito
a ver si llegaba ese 
que nunca iba a venir.

Estaba el diablo mal parado
en la esquina de mi barrio
al lado de el estaba la muerte
con una botella en la mano.....

Solo:

E|------|------------------------|-------------------12//----------|
B|------|-11bb-------11b--10p8h|-10----8-7-8-----------5------5|
G|-9----|------------------------|---------------------------2b-0--|
D|------|------------------------|---------------------------------|
A|-----|------------------------|----------------------------------|
E|------|------------------------|---------------------------------|

e|------------------------------------------|
B|--5--------3------5-----------------------|
G|-----2b-0------------2b-0--2?0-2?0-2?0-2b-|
D|------------------------------------------|
A|------------------------------------------|
E|------------------------------------------|




---------------------------|-----------------10--------|
-----8---10b-10b-10-8-|-10---8--7--8-----8--7--8-|
--9----------------------------------------------------|
-------------------------------------------------------|
-------------------------------------------------------|
-------------------------------------------------------|

--10p7-----10p7-----10p7-----10p7-----10p7-----10p7-----10p7-----10p7-----|
-------8-7------8-7------8-7------8-7------8-7------8-7------8-7------8-7-|
--------------------------------------------------------------------------|
--------------------------------------------------------------------------|
--------------------------------------------------------------------------|
--------------------------------------------------------------------------|

--10p7-----10p7-----10p7-----10p7------12bb/1/12|
-------8-7------8-7------8-7------8-7-------------|
--------------------------------------------------|
--------------------------------------------------|
--------------------------------------------------|
--------------------------------------------------|


--------------------------------------------------| |---------------------|
--10-10-10-10-12-12-12-12-13-13-13-13-12-12-12-12-| |10-10-10-10-12--/---|
--------------------------------------------------|X2|---------------------|
--------------------------------------------------| |---------------------|
--------------------------------------------------| |---------------------|
--------------------------------------------------| |---------------------|

14-12--14--15p14--12-17~~/-|-----15--17--17b----17brp15|
------------------------------|/17--------------------------|
------------------------------|-----------------------------|
------------------------------|-----------------------------|
------------------------------|-----------------------------|
------------------------------|-----------------------------|

------17-18b------17------|--15----------------------|--------------|--12-/-2-----------|
----------------------------|------17-19br---17--------|--15---17~~-|--12-/-2-----------|
----------------------------|--------------------16----|--------------|--12-/-2-----------|
----------------------------|--------------------------|--------------|--11-/-1-----------|
----------------------------|--------------------------|--------------|--------------------|
----------------------------|--------------------------|--------------|--------------------|





Y temblando como una hoja 
me cruce para encararlos
y le dije, me parece que esta vez
me dejaron bien plantado

Les pedì fuego y del bolsillo
saque una rama pa´convidarlos
Y bajo un árbol del otoño
nos quedamos chamullando.

MI5
Me contaron de sus vidas,
SOL5
sus triunfos y sus fracasos
re5
de que el mundo estaba loco
LA5
y hasta el cielo fue comprado:

Mi5 Sol5
y mas miedo que ellos dos
Re5 La5 Si5
me daba el propio ser humano

La5 Do5
y yo ya no esperaba a nadie
Sol5 Re5
y entre las risas del aquelarre
La5 Do5
el diablo y la muerte 
Sol5 Re5
se me fueron amigando.

La5 Do5
Ahì donde dobla el viento 
Sol5 Re5
y se cruzan los atajos.
La5 Do5
Ahì donde brinda la vida
Sol5 Re5
en la esquina de mi barrio.


 bb: subir, Bjar y subir de vuelta tocando una sola vez
/: arrastrar
//: arrastrar y bolver arrastrando
 
Disculpen pero no sabia como era jajaj

Pd: el ?arpegio? no se si esta bien, para mi si pero les pongo otro por las dudas
1|?------------------------|-------3p2-------------------|
2|-----0----0--------------|-------3---------2-----------|
3|-----0----0--------------|----2------------2?----------|
4|-----2----0---0p2p0---0--|--0--------0-----2-0p2p0-----|
5|-----2--------------2----|-------------0-----------2p0-|
6|-0-0----3----------------|-----------------------------|

Bueno me costo bastante pero ahí está cualquier error debe haber barios porque me confundo las cuerdas manden a mis-errores@hotmail.com  =>)
Si copian y pegan den crédito no sean foros

Fuente: Tusacordes