a b c d e f g h i j k l m n o p q r s t u v w x y z 0-9

Hielasangre

La Renga

			
+-------+
| INTRO |
+-------+

E|-----------------------------2------------------------------------|
B|--------2-----2----------------2-------------------3-2---3-2------|
G|----2-----2-----2--------2-------2------------2--------2-----2----|
D|------2-----2-----2--------2-------2------------2-----------------|
A|-0---------------------0-------------0----------------------------|
E|-------------------------------------------2----------------------|
   A                                         F#
   Un paso atrás, un paso atrás...    no me toques

* Es casi siempre el mismo arpegio, pero cuando canta más, más,más, va así:

E|--------------2-------|
B|--------2-------------|
G|--2-------------------|
D|----------------------|
A|----------------------|
E|----------------------|
   Más,  más,  más...

+----------+
| ESTROFAS |
+----------+

A5
   Hielasangre en el infierno, hielasangre en el infierno       * En los F#, tocá este riff:
       F#5           A5                                           D|-4-4--2---2p4p2----|
No me toques, no me toques                                        A|-4-4----4-------4--|
A5                                                                E|-2-2---------------|x2
   Salva el daño que provocas, salva el dueño de tu sombra
       F#5           A5                                         * Los acordes:  A5: x022xx
No me toques, no me toques...                                                  F#5: 244xxx 

+------------+
| ESTRIBILLO |
+------------+

B5  C#5    D5   C#5           * En realidad estos acordes no tienen estos nombres,
Un paso atrás  [...]            pero no tengo ni la + puta idea de como se llaman,
B5    C#5  D5   E5              son así de 6º a 1º:
Más, más, más, más...                                   B5: x224xxx
                                                       C#5: x446xxx
                                                        D5: x557xxx
                                                        E5: x779xxx

+--------------+
| SÓLO VIOLA |
+--------------+

E|------------0-------------------------------------------------------|
B|------------0-------------12b13--12b13--12b13--12b13--12b13--12b13--|
G|--------------------------14b15--14b15--14b15--14b15--14b15--14b15--|
D|-2------------------------------------------------------------------|
A|-2------------------------------------------------------------------|
E|-0------------------------------------------------------------------|
   E  

E|--------------------------------15-15-15-15-15-15-15-15-15-15-15-15-|
B|--------------------------------15-15-15-15-15-15-15-15-15-15-15-15-|
G|-2b3-2--2b3-2--2b3-2--2b3-2-----------------------------------------|
D|-0---0--0------0---0--0---0-----------------------------------------|
A|--------------------------------------------------------------------|
E|--------------------------------------------------------------------|


E|--------------------------------------------------------------------|
B|--------------------10-9----------------------------10-9--7-7-7-7-9-|
G|-----8-9-----8-9--8------8------------8-9----8-9--8-----------------|
D|-7-----7-----------------7-7-----7------------------------|
A|--------------------------------------------------------------------|
E|--------------------------------------------------------------------|
   A                                                        F#

E|--------------------------------------------------------------------|
B|-10-10-9-7---7-7-7--7-10-7--10/12--10--10~~-------------------------|
G|--------------------------------------------------------8-9-----8-9-|
D|------------------------------------------------7-7-----7-----|
A|--------------------------------------------------------------------|
E|--------------------------------------------------------------------|
                                                   A

E|--------------------------------------14-14-------------------------|
B|---10-9------------------------10-9---14-14---17b18--17-14-------17-|
G|-8------8-------8-9-----8-9--8-----------------------------16b17----|
D|------------7-----7---------------------------------------------|
A|--------------------------------------------------------------------|
E|--------------------------------------------------------------------|
                                        F#                   A

E|--------------------------------------------------------------------|
B|-------17-------7---------------------------------------------------|
G|-16b17----16b17---16b17~~------2b3-2b3-2b3-2b3-2b3-2b3-2b3-2b3-2b3--|
G|-------------------------------0---0---0---0---0---0---0---0---0----|
D|--------------------------------------------------------------------|
A|--------------------------------------------------------------------|
E|--------------------------------------------------------------------|
                                 B

+-------+
| FINAL |
+-------+

Todo con base en A.

E|-------------------------5-5-----5-5-----5-5-----5-5--------|
B|-5--5-5----5---5---------5-5-----5-5-----5-5-----5-5--------|
G|-5--5-5----5---5-----7b8-----7b8-----7b8-----7b8-----7b8~---|
D|---------7---7----------------------------------------------|
A|------------------------------------------------------------|
E|------------------------------------------------------------|

E|--------------------------------------------------------------------|
B|--------------------------------------------------------------------|
G|----7-5-----7-5-----7-5-----7-5-----7-5----------/8-9----/8-9-------|
D|-7--7-5--7--7-5--7--7-5--7--7-5--7--7-5-----------------------------|
A|--------------------------------------------------------------------|
E|--------------------------------------------------------------------|

E|---------------------|                |----------|
B|-10-9----------------|                |----------|
G|------8---/8-9~~~----|----------------|----------|
D|---------------------|----------------|-------7--|
A|---------------------|----------------|-------7--|
E|---------------------|-0-5--0-5--0-5--|-0--3--5--|
                       --Bajo-&-Bata---/


 +-----------------------------+--------------------------------+--------------------------+--+
 | Símbolos usados en los tabs |                                | Estructura de la canción |  |
 +-----------------------------+                                |--------------------------+  |
 |                                                              |                             |
 | 12b13 --> Estirar la cuerda en el traste 12 hasta q suene    | INTRO         SOLO          |
 |           como sí estuvieras pisando el traste 13 Bending. | ESTROFA 1     ESTRIBILLO    |
 |                                                              | ESTROFA 2     ESTROFA 1     |
 | 7 ----> Esta nota es opcional pisarla. Chizzo no la toca   | ESTRIBILLO    ESTROFA 5     |
 |           pero parecería sonar Ghost Note.                 | ESTROFA 3     ESTRIBILLO    |
 |                                                              | ESTROFA 4     FINAL         |
 | 10/12 --> Deslizar desde el traste 10 hasta el 12 Slide.   | ESTRIBILLO                  |
 |                                                              |                             |
 +--------------------------------------------------------------+-------------------+---------+   
 | Bue nuse si esto ta perfecto, pero es todo lo q puedo dar... | Cifrado americano |         |
 | asi q no hinchen...bah si tienen alguna correccion, escriban +-------------------+         |
 | a el_ciclope@hotmail.com... bue loco nos vemos...este tab va |                             |
 | p/ los mismos de siempre che...los rengos de lanus, en espe- | C   D   E   F   G    A   B  |
 | cial la tribu de alsina... MaRTo                             | Do  Re  Mi  Fa  Sol  La  Si |
 +--------------------------------------------------------------+-----------------------------+

Fuente original ATAME [www.atame.org]
Colaborador original: MaRTo [el_ciclope@hotmail.com]

Fuente: tusacordes.com