a b c d e f g h i j k l m n o p q r s t u v w x y z 0-9

Hey, Hey, My, My

La Renga

			
INTRO:


e|--------------------|
B|--------------------|
G|--------------------|
D|--------------------|
A|--------------------|
E|-0-2-3-5-5-3-2-0----|

e|--------------------|
B|--------------------|
G|--------------------|
D|--------------------|
A|-0-2-3-5-5-3-2------|
E|---------------0----|

e|--------------------------------------------------|
B|--------------------------------------------------|
G|-12^14-14b16-14b16-14b16-12-12-14-14-12-----------|
D|----------------------------------------14--------|
A|--------------------------------------------------|
E|--------------------------------------------------|






INTRO x4

G       A      D
Hey hey, my my
E           G           A        D
  el rockanroll no morirá jamás,
E      G
  hay más en el cuadro
A                      D
  de lo que puedes ver
E G       A
  Hey hey, my my

e|--------------------------------------------------|
B|--------------------------------------------------|
G|-14b16-b16-b16-b16-b16-b16-b16-b16-b16b14-12------|
D|---------------------------------------------14---|
A|--------------------------------------------------|
E|--------------------------------------------------|



Fuera del azul y dentro de lo negro,
pagaste por esto, pero te dan aquello,

e|--------------------------------------------------|
B|-------15-17-15-----------------------------------|
G|-14^16----------16-14-12-14b16-12~----------------|
D|--------------------------------------------------|
A|--------------------------------------------------|
E|--------------------------------------------------|


y una vez que te fuiste, no podrás regresar,
fuera del azul y dentro de lo negro.

solo
e|--------------------------------------------------|
B|-16b17-b17-b17-16b17~-----------------------------|
G|----------------------16-15-14-12-----------------|
D|----------------------------------12^14^12-14-14--|
A|--------------------------------------------------|
E|--------------------------------------------------|

e|--------------------------------------------------|
B|-------------------15-17-15-17-15-15-(15^17-17)x5-|
G|-12-14-14^12-14/16--------------------------------|
D|--------------------------------------------------|
A|--------------------------------------------------|
E|--------------------------------------------------|

e|----------------17^15-15--------------------------|
B|-17-17-17-17-17----------15-(15^17-17)x3----------|
G|--------------------------------------------------|
D|--------------------------------------------------|
A|--------------------------------------------------|
E|--------------------------------------------------|

e|--------------------------------------------------|
B|--------------------------------------------------|
G|-14b16-14^12-14-14-16b19-16b19-16-15-14-12-14b16--|
D|--------------------------------------------------|
A|--------------------------------------------------|
E|--------------------------------------------------|

e|--------------------------------------------------|
B|-------------12121212-15-12121212-17-12-15--------|
G|-14^12----12--------------------------------------|
D|-------14-----------------------------------------|
A|--------------------------------------------------|
E|--------------------------------------------------|

e|-----------------------------------15-------15----|
B|--------------------------12~~--12----12-12-------|
G|-14^12-12-12-14-14-12-----------------------------|
D|----------------------14--------------------------|
A|--------------------------------------------------|
E|--------------------------------------------------|

e|----15-------15----15----15/17-17b19-17^15-17b19--|
B|-12----12-12----12----12--------------------------|
G|--------------------------------------------------|
D|--------------------------------------------------|
A|--------------------------------------------------|
E|--------------------------------------------------|

e|-17b19-17-15-17-15-15----------------------15-----|
B|----------------------17^15----15----15----12-----|
G|----------------------------16----16----16----14--|
D|--------------------------------------------------|
A|--------------------------------------------------|
E|--------------------------------------------------|

e|-------15-17b19-b19b19b19b19b19b19b19b19b19-15----|
B|-16^14-----------------------------------------17-|
G|--------------------------------------------------|
D|--------------------------------------------------|
A|--------------------------------------------------|
E|--------------------------------------------------|

e|-------------------------------15-17b19-17--------|
B|-15^17-17-15^17-15^17-15-15-17--------------------|
G|--------------------------------------------------|
D|--------------------------------------------------|
A|--------------------------------------------------|
E|--------------------------------------------------|

e|-------15-------15----15^17b19-17b19b19b19b19b19b-|
B|-15-17----17-17----17-----------------------------|
G|--------------------------------------------------|
D|--------------------------------------------------|
A|--------------------------------------------------|
E|--------------------------------------------------|

e|b19b19b19-15--------------------------------------|
B|-------------17-15^17-15^17-15^17-15-17-----------|
G|--------------------------------------------------|
D|--------------------------------------------------|
A|--------------------------------------------------|
E|--------------------------------------------------|

e|-17-19b20.5-19b20.5-19-18-17-15-17-15-------------|
B|--------------------------------------17-15-------|
G|--------------------------------------------------|
D|--------------------------------------------------|
A|--------------------------------------------------|
E|--------------------------------------------------|

e|-17b19~-17-15-17-19-17------------------17/19/17--|
B|-----------------------17-17171717-15-17----------|
G|--------------------------------------------------|
D|--------------------------------------------------|
A|--------------------------------------------------|
E|--------------------------------------------------|

e|------------------------------------------------------|
B|------------------------------------------------------|
G|-9999999-777777-999999-777777777-6666666-777777-99999-|
D|------------------------------------------------------|
A|------------------------------------------------------|
E|------------------------------------------------------|

SUBE PISANDO

e|--------------------------------------------------------|
B|----------------9^8-X5-12^10-x3-14^12-x3-17^15-x4-15b17-|
G|-(9^7-X5-11^9-X5)---------------------------------------|
D|--EN ESTA PARTE LOS INTERCALA---------------------------|
A|--------------------------------------------------------|
E|--------------------------------------------------------|

e|--------------------------------------------------|
B|-21^19^17-17^19^17--------------------------------|
G|--------------------------------------------------|
D|--------------------------------------------------|
A|--------------------------------------------------|
E|--------------------------------------------------|

El rey se ha muerto pero no se ha olvidado,
esa es la historia del pobre rocker,
es mejor consumirse que dormir oxidado,
el rey se ha muerto pero no se ha olvidado.

Hey hey, my my
el rockanroll no morirá jamás,
hay más en el cuadro
de lo que puedes ver.

Hey hey, my my
el rockanroll no morirá jamás,
Hey hey, my my
el rockanroll no morirá jamás.

outro
esto lo repite 2 veces
e|------------------------------------------------------|
B|------------------------------------------8-8----8-8--|
G|-9-9-9-9-9-9-7-7-7-9-9-9-7-7-9-7-9--9-9-7-----7-----7-|
D|------------------------------------------------------|
A|------------------------------------------------------|
E|------------------------------------------------------|

e|---------------------------10-----10-15-15-12---------|
B|---8-8--8-8---8-8--8-8-/12----/12---------------------|
G|-7-----7-----7----7-----------------------------------|
D|------------------------------------------------------|
A|------------------------------------------------------|
E|------------------------------------------------------|




TODOS LOS INTERLUDES SON CON TREBLE MUY BESTIA

Fuente original ATAME [www.atame.org]
Colaborador original: José Videla [marcoskipps_prosk8er@hotmail.com]

Fuente: tusacordes.com