a b c d e f g h i j k l m n o p q r s t u v w x y z 0-9

Hablando De La Libertad

La Renga

D
A
G
			
INTRO: 
                                                              
    D              A                G                            
E|---------------------------------------------------------|    
B|---------------------------------------------------------|    
G|---------------------------------------------------------|    
D|--7--7-5-4-4h5h4-----------------------------------------|    
A|-----------------7--7-5-4-4h5h4---5---3-2-0-3-2-0-2/3-5--|    
E|-----------------5----------------3----------------------|    
                                                              

    D              A                G                            
E|---------------------------------------------------------|   
B|---------------------------------------------------------|    
G|---------------------------------------------------------|    
D|--7--7-5-4-4h5h4-----------------------------------------|    
A|-----------------7--7-5-4-4h5h4---5---3-2-0-3-2-0-2/3--7-|    
E|-----------------5----------------3--------------------5-|    



A5                             G5             D5 
 Hice a mi cuerpo amigo del viento y la distancia
A5                            G5           D5
 y me fui a buscarle una verdad a mi corazón
A5                          G5             D5  
 algo tan grande como el cielo y las montañas
A5                        G5         D5
 y tan pequeño como una gota de rocío.

A5                  G5              D5 
Y ya no estuvo mas conmigo mi corazón
A5                      G5               E5
se fue a posar en cada una de las cosas
A5                  G5              D5 
y ya no estuvo mas conmigo mi corazón
A5                      G5             E5 
su fue a fundir con la escencia y la sabia.

D5                             C5  
 Y ahora solo un camino he de caminar,
A5                      G5          E5
 cualquier camino que tenga corazón.
D5                     C5                G5-B5-C5 / D5
 Atravesando todo su largo sin aliento
                      C5          A5      
 dejando atrás mil razones en el tiempo.

B5                
 Y voy queriendo ser libre, 
F5
 encontrar mi lado salvaje,
C5
 ponerle alas a mi destino, 
G5
 romper los dientes de este engranaje.

Y voy queriendo ser libre, 
encontrar mi lado salvaje,
ponerle alas a mi destino, 
romper los dientes de este engranaje.

A5                     G5            D5  
Hice un lugar en el refugio de mis sueños
A5                     G5           D5 
Y guardé ahí mi tesoro mas preciado
A5                     G5           D5 
donde no llega el hombre con sus jaulas
A5                    G5             
ni la maquinaria de la supervivencia.

A5                 G5          D5 
 Me fue más fácil intentar la vida
A5                             G5        E5
 que venderla al intelecto y la conformidad.

Y ahora solo un camino he de caminar,
cualquier camino que tenga corazón.
Atravesando todo su largo sin aliento
dejando atrás mil razones en el tiempo.

Y voy queriendo ser libre, 
encontrar mi lado salvaje,
ponerle alas a mi destino, 
romper los dientes de este engranaje.

Y voy queriendo ser libre, 
encontrar mi lado salvaje,
ponerle alas a mi destino, 
romper los dientes de este engranaje.


Aca les dejo los acordes... espero qe les guste :]

Fuente: tusacordes.com