a b c d e f g h i j k l m n o p q r s t u v w x y z 0-9

Hablando De La Libertad

La Renga

			
INTRO;

GUITARRA: chizzo                                                          
   RE                 LA                  SOL                    RE5        
E|-----------------------------------------------------------------------------------------|
B|-----------------------------------------------------------------------------------------|
G|-7-----------------------------------------------------------7-7-7--7-7-7--77777777--|
D|-7-7-5-4-5p4-------------------------------------------------7-7-7--7-7-7--77777777--| 
A|-5-----------5---7-7-5-4-5p4--------5--3-2-0-3-2-0-0-2/3-5-5-5--5-5-5--55555555--|
E|-------------------5-------------5----3----------------------------------------------|

aca el saxo armoniza con las mismas notas...
  RE                      LA                    SOL                      LA5        
E|----------------------------------------------------------------------------------------|
B|----------------------------------------------------------------------------------------|
G|-7777---------------------------------------------------------------------------------|
D|-7777-7-5-4-5p4------------------------------------------------------7--------------| 
A|-5555-----------5---7777-7-5-4-5p4--------5555-3-2-0-3-2-0-0-2/3-7--------------|
E|----------------------5555-------------5----3333-------------------5---------3/---|      
  
BAJO :                                                           
G|------------------------------------------------------------------|-----------------------|
D|-----7-5-4-5p4----------------------------------------------------|-----------------------| 
A|-5-----------5-------7-5-4-5p4------------3-2-0-3-2-0-0-2/3-5-|-3-5-3-5-3-5-3-5-3-5-0-|
E|-------------------5-------------5----3-----------------------|-----------------------|

G|----------------------------------------------------------------------|-----------------------|
D|--------7-5-4-5p4-----------------------------------------------------|-----------------------|
A|-5555-----------5--------7-5-4-5p4------------3-2-0-3-2-0-0-2/3-----|-----------------------|
E|--------------------5555-----------5--3333--------------------5-|-3-5-3-5-3-5-3-5-3-5-0-|




VERSO 1:

BAJO :  LA      LA             Sol             RE                                                          
G|-----------|--------------|---------------|-------------------|
D|-----------|--------------|---------------|-------------------|X4
A|-----------|--------------|---------------|-5-5-3--5-3--5-3-|
E|5-5-5-555|-5-5-5-555-5--|33-3-3-3-3-3-|-------------------|

GUITARRA: FILL 1
e|--------------||
B|--------------||
G|--7--5--7--5--||
D|--7--5--7--5--||
A|--------------||
E|--------------||

LA                            SOL            RE +fill 1
 Hice a mi cuerpo amigo del viento y la distancia
lA                           SOL          RE+fill 1
 y me fui a buscarle una verdad a mi corazón
LA                         SOL           RE+ fill 1
 algo tan grande como el cielo y las montañas
LA                       SOL        RE+fill 1
 y tan pequeño como una gota de rocío.


VERSO 2:
BAJO :  LA      LA             Sol             RE                                 MI
G|-----------|--------------|---------------|-------------------|----|---|----|---------------|
D|-----------|--------------|---------------|-------------------|-LA-|-LA|-SOL|---------------|X2
A|-----------|--------------|---------------|-5-5-3--5-3--5-3-|----|---|----|7-7-7-7-7-7-7-7|
E|5-5-5-555|-5-5-5-555-5--|33-3-3-3-3-3-|-------------------|----|---|----|---------------|


LA                 SOL             RE +fill1
Y ya no estuvo mas conmigo mi corazón
LA                     SOL             mi
se fue a posar en cada una de las cosas
LA                 SOL             RE + fill1
y ya no estuvo mas conmigo mi corazón
LA                     SOL           MI 
su fue a fundir con la escencia y la sabia.

VERSO 3:
BAJO :      RE           DO                          LA                  SOL                 MI
G|--------------------|--------------------------|--------------------|-----------------|-------|
D|--------------------|--------------------------|--------------------|-----------------|-------|
A|--5--5-555555555555-|-3-3-3-3-3-3-3-22-33-44-55|--------------------|-----------------|-------|
E|--------------------|--------------------------|--5--5-555555555555-|-3--3-3333333333-|0000000|
        RE                 DO            fill2    RE                   DO        LA       
G|------------------|--------------------------|-------------------|-----------|----------------|
D|------------------|--------------------------|-------------------|-----------|----------------|
A|-5--5-555555555555|--3-3-3-3-3-3-333---2~3~/-|-5--5-555555555555-|33333333333|----------------|
E|------------------|------------------3~------|-------------------|-----------|5555555555555555|

GUITARRA: FILL 2
e|--------------||
B|--------------||
G|--------------||
D|--------------||
A|----2~-3~-/5~-||
E|-3~-----------||


RE                             DO 
 Y ahora solo un camino he de caminar,
LA                      SOL         MI
 cualquier camino que tenga corazón.
RE                     DO              FILL2
 Atravesando todo su largo sin aliento
 RE                    DO         LA      
 dejando atrás mil razones en el tiempo.


ESTRIBILLO 1:

BAJO y GUITARRA : tocan estas notas
------------------------------------                                                           

SIb                
 Y morir queriendo ser libre, 
Fa
 encontrar mi lado salvaje,
Do
 ponerle alas a mi destino, 
SOL
 romper los dientes de este engranaje.


morir queriendo ser libre, 
encontrar mi lado salvaje,
ponerle alas a mi destino, 
romper los dientes de este engranaje.




PUENTE 1:
GUITARRA y saxo:
     SOL                    RE              LA               SOL                       RE
E|---------------------|------------------------------------------------------------|-----------|
B|---------------------|------------------------------------------------------------|-----------|
G|---------------------|7---------------------------------------------------------|77777777777|
D|5------------------|7--7-5-4-5p4----------------------------------------------|77777777777|
A|5-3-2-0-3-2-0-0-2/3|5------------5-7--7-5-4-5p4-----5----3-2-0-3-2-0-0-2/3|55555555555|
E|3------------------|-----------------5-------------5--3---------------------|-----------| 
 
  RE                 LA                  SOL                    RE5        
E|-----------------------------------------------------------------------------------------|
B|-----------------------------------------------------------------------------------------|
G|-7-----------------------------------------------------------7-7-7--7-7-7--77777777--|
D|-7-7-5-4-5p4-------------------------------------------------7-7-7--7-7-7--77777777--| 
A|-5-----------5---7-7-5-4-5p4--------5--3-2-0-3-2-0-0-2/3-5-5-5--5-5-5--55555555--|
E|-------------------5-------------5----3----------------------------------------------|

    
BAJO :                                                           
G|---------------------|------------------------------------------------------------|-----------|
D|---------------------|-----7-5-4-5p4----------------------------------------------|-----------|
A|----3-2-0-3-2-0-0-2/3|5------------5------7-5-4-5p4-----------3-2-0-3-2-0-0-2/3-|35353535350|
E|3------------------|-----------------5-------------5--3---------------------|-----------| 

G|----------------------------------------------------------------------|-----------------------|
D|--------7-5-4-5p4-----------------------------------------------------|-----------------------|
A|-5555-----------5--------7-5-4-5p4------------3-2-0-3-2-0-0-2/3-5-|-3-5-3-5-3-5-3-5-3-5-0-|
E|--------------------5555-----------5--3333------------------------|-----------------------|

SOLO SAXO :

BAJO :   LA          SOL            RE         SOL  
G|--------------|---------------|------------|-----------------------|
D|--------------|---------------|------------|-----------------------|
A|--------------|---------------|-55555555555|-----------------------|X2
E|-55555555555--|-3333333333333-|------------|-3-5-3-5-3-5-3-5-3-5-0-|

Guitarra:              engancha con RE        LA* con vibrato
e|------|-------|------------------|-----|--------------------|
B|------|-------|------------------|-----|--------------------|
G|-LA5--|--SOL5-|------------------|-RE5-|/9~9~~9~9~~9~9~9~9~9|
D|------|-------|------------7---|-----|--------------------|
A|------|-------|----2~-3~-/-5~--|-----|--------------------|
E|------|-------|-3~---------------|-----|--------------------|
    LA5
e|--------------------|-------|------------------|-----|--------------------|
B|-------------5------|-------|------------------|-----|--------------------|
G|--------5-7br--7-5--|--SOL5-|------------------|-RE5-|/9~9~~9~9~~9~9~9~9~9|
D|7-5-7------------7|-------|------------7---|-----|--------------------|
A|7-----------------|-------|----2~-3~-/-5~--|-----|--------------------|
E|5-----------------|-------|-3~---------------|-----|--------------------|


Y Sigue asi
 

   LA                 SOL                 RE                LA
E|----------------------------------------------------------------------------|    
B|----------------------------------------------------------------------------|    
G|-------7-6---9--7-6------5-4---7--5-4--------------------------5-7-5-7-5-7-5|X2  
D|-7-------7--------5------5---------7---7-4-5-4------7--5-7-5-7-5-7-5|    
A|-7----------------5----------------5-----------7-5--7---------------|    
E|-5----------------3-----------------------------------5---------------|    
                                                              
  BAJO :                                                           
G|-----------------------------------------------------------------------------|
D|---------------------------------------------7-4-5-4-------------------------|X2
A|-----5-4---7-5-4--------3-2---5-3-2-/-5------------7-5---------------------|
E|-5-----5----------3-----3-----------------------------5--3-5-3-5-3-5-3-|


VERSO 4 : sin distorcion
*tocar estas notas pero con arpegios
   LA      SOL     RE           Riff
e|---0---|-------|--2--|------|-------------|---|
B|---2---|-------|--3--|------|-------------|---|
G|---2---|---4---|--2--|--LA--|-------------|---|
D|---2---|---5---|--0--|------|-4p2---------|2|
A|---0---|---5---|-----|------|-----4p3-0---|0|
E|-------|---3---|-----|------|-----------3-|---|

LA - SOL - RE -LA- RIFF..... esto lo toca antes de cantar


TOCAR CON ARPEGIOS TAMBIEN..

LA                    SOL             RE    LA
Hice un lugar en el refugio de mis sueños
LA                    SOL            RE     LA
Y guardé ahí mi tesoro mas preciado
LA                    SOL            RE    LA
donde no llega el hombre con sus jaulas
LA                    SOL dejar sonar           
ni la maquinaria de la supervivencia.

 BAJO :                ___________X3__________
  LA  SOl   RE  LA    | LA  SOl  RE       LA  |    LA  sol                               
G|-------------------||-------------------------||----------|
D|-------------------||-------------------------||----------|
A|----------5------||----------55-3---------||----------|
E|-5--3-----5--||-5--3-------5-3-5--||-5--3-|




VERSO 5:
LA               SOL          RE +fill1
 Me fue más fácil intentar la vida
LA                             SOL        MI
 que venderla al intelecto y la conformidad.


VERSO 6:

RE                             DO 
 Y ahora solo un camino he de caminar,
LA                      SOL         MI
 cualquier camino que tenga corazón.
RE                     DO              FILL2
 Atravesando todo su largo sin aliento
 RE                    DO         LA      
 dejando atrás mil razones en el tiempo.


ESTRIBILLO 2 igual
y morir  queriendo ser libre, 
encontrar mi lado salvaje,
ponerle alas a mi destino, 
romper los dientes de este engranaje.

morir queriendo ser libre, 
encontrar mi lado salvaje,
ponerle alas a mi destino, 
romper los dientes de este engranaje.


FINAL::: con
     SOL                    RE              LA               SOL                       RE
E|---------------------|------------------------------------------------------------|-----------|
B|---------------------|------------------------------------------------------------|-----------|
G|---------------------|7---------------------------------------------------------|77777777777|
D|5------------------|7--7-5-4-5p4----------------------------------------------|77777777777|
A|5-3-2-0-3-2-0-0-2/3|5------------5-7--7-5-4-5p4-----5----3-2-0-3-2-0-0-2/3|55555555555|
E|3------------------|-----------------5-------------5--3---------------------|-----------| 
 
  RE                 LA                  SOL                    RE5                   FIN con Re 
E|----------------------------------------------------------------------------------------------|
B|----------------------------------------------------------------------------------------------|
G|-7-----------------------------------------------------#--------------#---------------7777|
D|-7-7-5-4-5p4--------------------------------------------------------------------------7777| 
A|-5-----------5---7-7-5-4-5p4--------5--3-2-0-3-2-0---3-2-0-3-2-0----3-2-0-3-2-0-/-5555|
E|-------------------5-------------5----3---------------------------------------------------|
 


BAJO : 
    SOL                    RE              LA               SOL                       RE 
G|---------------------|------------------------------------------------------------|-----------|
D|---------------------|-----7-5-4-5p4----------------------------------------------|-----------|
A|----3-2-0-3-2-0-0-2/3|5------------5------7-5-4-5p4-----------3-2-0-3-2-0-0-2/3-|35353535350|
E|3------------------|-----------------5-------------5--3---------------------|-----------|
 
 RE                 LA                  SOL                    RE5                   FIN con Re 
G|---------------------------------------------------------#--------------#---------------------|
D|-----7-5-4-5p4--------------------------------------------------------------------------------| 
A|-5-----------5-------7-5-4-5p4-------------3-2-0-3-2-0---3-2-0-3-2-0----3-2-0-3-2-0-/-5555|
E|-------------------5-------------5----3---------------------------------------------------|
 


fin.

Fuente original ATAME [www.atame.org]
Colaborador original: guille [elguille665@hotmail.com]

Fuente: tusacordes.com