a b c d e f g h i j k l m n o p q r s t u v w x y z 0-9

Hablando De La Libertad

La Renga

			
INTRO: 

G|---------------------------------------------------------|
D|----777-555-4-5-0----------------------------------------|
A|--5--------------/5------777-555-4-5-0-------230-230-205-|  x2
E|------------------/5-------------------/5--3-------------|
                                                              
Base desde "hice a mi cuerpo amigo del..."

G|-----------------------------------------------|
D|-----------------------------------------------|
A|--------------------------------------55-3450--|
E|--55-3455-3455-3455--33-123-123--11------------|

Base II "y ahora solo un camino..."

G|--------------------------------------------------------|
D|--------------------------------------------------------|
A|--55-3455-3455-3455--33-1233-1233-1233------------------|
E|---------------------------------------55-3455-3455-3455|


Base II continuado

G|-------------------------|
D|-------------------------|
A|-------------------------|
E|--55-3455-345-0-0-0-0-0--|


Base III "atravesando todo su largo..."

G|--------------------------------------------------------|
D|--------------------------------------------------------|
A|--55-3455-3455-3455--33-1233----------------------------|
E|------------------------------33-1233--55-3455-3455-3455|

Base III continuado

G|-------------------------|
D|-------------------------|
A|-------------------------|
E|--33-1233-123-0-0-0-0-0--|


ESTRIBILLO 

G|------------------------------------------|
D|------------------------------------------|
A|-1111111-12----------3333333-34-----------|
E|-----------1111111-12----------3333333-34-|

Final repite 2 veces la intro y hace:

G|------------------------------------------------|
D|------------------------------------------------|
A|--2-3-0-2-3-0---2-3-0-2-3-0---2-3-0-2-3-0-2-0--5|
E|------------------------------------------------|

Esta es una version casi exacta de la canción, es muy facil 
de tocar pero cansa un poco los dedos de la mano iz. si no 
tenes practica, en cuanto la consiga exactamente la mando de nuevo

Fuente original ATAME [www.atame.org]
Colaborador original: Emmanuel Albó [iseka@yahoo.com]

Fuente: tusacordes.com