a b c d e f g h i j k l m n o p q r s t u v w x y z 0-9

Estalla

La Renga

G
D
A
B
			
La Renga-Estalla 2001

Intro;
Guitarra eléctrica

e|----------------------------------------------------|----------------------------------------------------|
B|----------------------------------------------------|----------------------------------------------------|
G|----------------------------------------------------|----------------------------------------------------|
D|----------2^4-2--4^2-5-4-2-2-------2^4-2------------|----------2^4-2--4^2-5-4-2-2-------2^4-2------------|
A|---0^2^5-----------------------2^4--------4-2-0-0---|---0^2^5-----------------------2^4--------4-2-0-0---|
E|----------------------------------------------------|----------------------------------------------------|

e|----------------------------------------------------|----------------------------------------------------|
B|--------------0-------------------------------------|-----------2--2-------------------------------------|
G|-----------------0----------------------------------|-----------2-----2----------------------------------|
D|-----5--4--2---------2------------------------------|-----5--4-----------2-------------------------------|
A|-------------------------5--4--2---0--0--0----------|------------------------5--4--2---0--0--0-----------|
E|----------------------------------------------------|----------------------------------------------------|

^Ligado

Instrumental:

Acordes:
   GG   DD   AA   BB
e|--------|-------|-------|-------|
B|--------|-------|---2---|---4---|
G|---13---|---7---|---2---|---4---|
D|---13---|---7---|---2---|---4---|
A|---11---|---5---|---0---|---2---|
E|--------|-------|-------|-------|

Verso 1:
                       Laarpegiado              Si La
e|---------------------------------------------|--------|
B|----------2----------------------------------|--------|
G|-------------2---------------2--------2------|--------|
D|------2---------2---------2----2----2------0-|--------|
A|---0---------------0---0----------0------0---|---2-0--|
E|---------------------------------------------|--------|

Estribillo:
     Sol Re       La
e|-----------|-----------|
B|-----------|-----2-----|
G|---13--7---|-----2-----|
D|---13--7---|-----2-----|
A|---11--5---|-----0-----|
E|-----------|-----------|
     Es_talla el mundo

Verso 2 igual al Verso 1
                      Laarpegiado              Si La
e|---------------------------------------------|--------|
B|----------2----------------------------------|--------|
G|-------------2---------------2--------2------|--------|
D|------2---------2---------2----2----2------0-|--------|
A|---0---------------0---0----------0------0---|---2-0--|
E|---------------------------------------------|--------|

Estribillo:
     Sol Re       La
e|-----------|-----------|
B|-----------|-----2-----|
G|---13--7---|-----2-----|
D|---13--7---|-----2-----|
A|---11--5---|-----0-----|
E|-----------|-----------|
     Es_talla el mundo

Verso 3
              La              Si La
e|-------------------------|---------|
B|---222222222-222222222---|---4-2---|
G|---222222222-222222222---|---4-2---|
D|---222222222-222222222---|---4-2---|
A|---000000000-000000000---|---2-0---|
E|-------------------------|---------|

Estribillo:
     Sol Re       La
e|-----------|-----------|
B|-----------|-----2-----|
G|---13--7---|-----2-----|
D|---13--7---|-----2-----| x2
A|---11--5---|-----0-----|
E|-----------|-----------|
     Es_talla el mundo

Verso 4
       Riff
e|----------------|
B|----------------|
G|----------------|
D|--5-4---2-0---|
A|----------------|
E|----------------|
   Es_pe_ra_ndo

e|-------------|
B|-------------|
G|-------------|
D|-------------|
A|------2-0----|
E|-------------|
   Des_nu_do

Estribillo:
     Sol Re       La
e|-----------|-----------|
B|-----------|-----2-----|
G|---13--7---|-----2-----|
D|---13--7---|-----2-----| x7
A|---11--5---|-----0-----|
E|-----------|-----------|
     Es_talla el mundo

Final:
     Sol        Re        La
e|----------|---------|---------|
B|----------|---------|----2----|
G|----13----|----7----|----2----|
D|----13----|----7----|----2----|
A|----11----|----5----|----0----|
E|----------|---------|---------|

Estructura de la canción:

Intro

Verso 1:

Laarpegiado
Estoy buscando algún lugar lejano
                             Si La
donde patear las cosas de mi mente.
Laarpegiado
es un lugar como la noche
                    Si La
como la noche para siempre.
Laarpegiado
Cuando quedas suspendido y solo
                      Si La
en un frío lugar del espacio.
Laarpegiado
Estás buscando algún lugar lejano
                             Si La
donde patear las cosas de tu mente.

Estribillo:

Sol  Re      La
Es_talla el mundo.  x4

Verso 2 igual al verso 1:

Gira la tierra entre tus manos
para ver en sus vertientes.
Así un lugar como la sangre
como la sangre para siempre.
Estoy buscando algún lugar desnudo
donde patear las cosas de mi mente.
Así un lugar como la nada
como la nada para siempre.

 Estribillo:

Sol  Re      La
Es_talla el mundo.  x4

Verso 3:

La                                                           Si La
Sabes, vengo de muy lejos, quizá de un frío lugar del espacio
La                                                                Si La
y todavía dentro de mi mente, estoy buscando algún lugar lejano.
La                                                         Si La
Estoy buscando algún lugar desnudo, un lugar descerebrado
La
donde patear las cosas de mi mente, todavía estoy buscando, estalla...Estribillo:

 Estribillo:

Sol  Re      La
Es_talla el mundo.  x4

Intro/Solo

 Estribillo:

Sol  Re      La
Es_talla el mundo.  x4

Verso 4:

Ya estás muy lejos, no sabes cuanto
está allá el mundo, está esperando
  Riff                                Si La
esperando un lugar lejano, un lugar desnudo.
Está allá el mundo esta esperando
estoy muy lejos, estás llegando, estalla...

Estribillo:

Sol  Re      La
Es_talla el mundo x7

Final.

Fuente original ATAME [www.atame.org]
Colaborador original: Mati [matiasp_motoralmaisangre@hotmail.com]

Fuente: tusacordes.com