a b c d e f g h i j k l m n o p q r s t u v w x y z 0-9

En Un Rincon De Las Sierras

La Renga

			
En este tema hay que mover rápido los dedos .No se bien si así se llama
la nota E7m pero abajo estan los tono cualquier duda escribanme ¿listo?,
hay vá el tema: 

Intro
e|------0------------------------0---------3-3-3-3---|
B|--------1------------------------1-------1-1-1-1---|
G|----------0-----------------2------2-----0-0-0-0---|
D|--2---------2---2---2---2------------2---2-2-2-2---|
A|--3-------------3---2---0--------------------------|
E|---------------------------------------------------|

e|------------------------------------------0-0-0-0-0-0-0-0---|
B|------------------------------------------1-1-1-1-1-1-1-1---|
G|-----0----0---------------2-2-2-2-2-2-2-2-2-2-2-2-2-2-2-2---|
D|--2-----2-----2---2---2---2-2-2-2-2-2-2-2-2-2-2-2-2-2-2-2---|
A|--3-----3-----3---2---0---0-0-0-0-0-0-0-0-0-0-0-0-0-0-0-0---|
E|------------------------------------------------------------|

C                                 C->Em7->Am           Am7 Am Am7         
En un rincón de las sierras donde arden las estrellas
C                       C->Em7->Am 
dejé mi herida abierta en un valle de penas,
Dm                    Am
casi sin darte cuenta se te puede enfermar el corazón,
Dm                        E    E7m
cuando uno menos lo espera el veneno ya esta tus venas.

En un río de deshielo al sol de una mañana,
trajeron en un cuerpo a un angel de montaña,
un par de ojos negros te pueden robar la ilusión,
y no hay cura ni remedio que te haga ver mejor.

Solo el mismo acompañamiento

La luna y mi suerte rompieron el encanto,
perdí mi sueño en la noche y el angel se hizo diablo,
un par de ojos negros te pueden robar la ilusión,
y no hay cura ni remedio que te haga ver mejor.

En un rincón de las sierras donde arden las estrellas
dejé mi herida abierta en un valle de penas,
casi sin darte cuenta se te puede enfermar el corazón,
cuando uno menos lo espera el veneno ya esta tus venas.

                  Am7            Dm  E E7m
La la la la la... ohu ohu! oh!

2do Solo de guitarra y solo de saxo.
---------------------------------------------------------------------
      E D A G B e | Saludos a Cipolletti, al Cem 65, a 1° 7°, chau
C     x 3 2 0 1 0 | ?La vida es linda solo que algunos confunden
Am    x 0 2 2 1 x |  linda con fácil?Quino
Am7   x 0 2 0 1 3 |
E     0 2 2 1 0 0 |
Em7   0 2 2 0 1 0 |
E7m   0 2 0 1 3 0 |

Fuente original ATAME [www.atame.org]
Colaborador original: Jorge Nuñez [ktupqma2@intrada.com.ar]

Fuente: tusacordes.com