a b c d e f g h i j k l m n o p q r s t u v w x y z 0-9

En Los Brazos Del Sol

La Renga

			
G -------------
D -------------
A -----4-0-2---
E -2-2---------

Las primeras 2 estrofas las hace la guitarra

Riff 1
G --------------------------  x4
D -----------------4-3-2-0--
A ---4-3-2-0-2-0-2----------
E -2------------------------

Riff 2  hace unas variaciones sobre esta nota
G ------------------         /
D ------------------         /
A ------------------         /  x4
E -5-5-5-5-5-5-5-5--         /
                             /
  Después hace esto          /
G -------------------------- /
D -------------------------- /
A -----4-0-2-4------4-0-2-4- /
E -2-2----------2-2--------- /


Riff 3 Estribillo esto lo toca rápidamente
G ------------               /
D ------------               / X4
A -5-5-5-5-5--               /
E ------------               /
                             /
G -------------------------- /
D -------------4-4---------- /
A -----4-0-2-4-----4-0-2-4-- /
E -2-2---------------------- /

Después hace:

Riff 1
Riff 2
Riff 3

 y hace esto:

G ------------- /
D ------------- /
A -----4-0-2--- /
E -2-2--------- /


Riff 2
Riff 3 solo 2 vueltas

Riff 1 1°s 2 vueltas hechas por la guitarra
Riff 3

La 2° vuelta hace

G -----------
D -----------
A -5-5-5-5-5-
E -----------

Final:
G -----------------------------------------
D -----------4-4---------4-4---------------
A ---4-0-2-4-----4-0-2-4-----4-0-2-4-------
E -2---------------------------------2-2-2-

G ----------
D ----------
A ----4-0-2-
E 2-2-------


G -----
D -----
A -----
E -2-2-


Para la profe de informática que me hizo el aguante y para luky y Rodri, son unos grosos.
Aguante La Renga.
Que lo disfruten.

Fuente original ATAME [www.atame.org]
Colaborador original: Francisco Pawluszek [fpawo4@yahoo.com]

Fuente: tusacordes.com