a b c d e f g h i j k l m n o p q r s t u v w x y z 0-9

En Los Brazos Del Sol

La Renga

A
F#m
D
			
 Riff intro:

E-----------------------------------------------------
B-----------------------------------------------------
G-----------------------------------------------------
D----------------------------------------------4-3-2--
A------4-0-3--------4-4-4---3-2-0--2-2-2-0-2----------
E--2-2--------2-2-2-----------------------------------
se repite cuatro veces


A                             F#m
Padre de la luz de la luz primera
 A                       F#m
y por eso rey de toda luz     E-----------------------
                              B-----------------------
                              G-----------------------
                              D-----------------------
                              A--2-0-2--4-----2-0-2-4-
                              E------------2----------
Alma visible del dios que ciega

y abraza las llamas de su propia cruz


 D
En esta nuestra justa distancia  D--4-3-2-1-0------
                                 A------------4----
                                 E-----------------
                                 se repite x dos veces

 D
si me acerco me querrás quemar
 D
en esta nuestra justa distancia
 D
si me alejo me dejarás helar

 A                          F#m
Ojo de fuego de toda esta mente
 A                       F#m
Acá me seco con tu rayo hoy
 A                                F#m
Cuando llegue el fin aún será de día
 A                        F#m
Pobre quien no sude tu calor

En esta nuestra justa distancia... 

Fuente original ATAME [www.atame.org]
Colaborador original: pabloch [lito_016@hotmail.com]

Fuente: tusacordes.com