a b c d e f g h i j k l m n o p q r s t u v w x y z 0-9

Embrollos, Fatos Y Paquetes

La Renga

			
RIFF
|-----------|
|-----------|
|-----------|
|-----------|
|-----3-0---|
|-0/3-----3-|


INTRO
|------|----|------|----|------|----|------|--
|------|----|------|----|------|----|------|----
|------|----|------|----|------|----|------|----
|-RIFF-|-A7-|-RIFF-|-E7-|-RIFF-|-D7-|-RIFF-|-A7-
|------|----|------|----|------|----|------|----
|------|----|------|----|------|----|------|----


La7                         Mi7
Puro nervio del fanfarrón, al fin mostró la hilacha
Re7                         La7
y dio ruidosa publicación a sus medallas.
Pura espuma un senador, honestidad y memoria,
a puro verso se trabajó, un viaje a California.


Sol7                             Re7
Y pasar, y pasar, y pasará el tiempo,
Sol7        
y otra vez, otra vez, otra vez,
    La7                         Sol7  Mi7
la misma vieja historia vieja.


El cielo eterno quiso ganar, con la pureza de su alma,
y por dinero vino a ofrecerme su palabra santa,
presa, presa de la pureza, invento del convento,
ay, hermanita, mi virgencita, siento caliente tu aliento.

ESTRIBILLO

|-7---7---------------|--|-7---7---------------------------------|
|-8---8--7--8-8-6-6-5-|--|-8---8--7----------------8--8h10p8-----|
|-7---7--7--7-7-------|x3|-7---7--7------7----9--------------9-7-|
|--------7------------|--|--------7---/7---/9---/9---------------|
|---------------------|--|---------------------------------------|
|---------------------|--|---------------------------------------|

|--------------------------------------------------------------|
|--------------------------------------------------------------|
|-7br---7br-5-7b-5--------7-----7----------------------------2-|
|--------------------/7-9---7-9---9-7---5-4-2-0--0-2-4-5-4-5---|
|--------------------------------------------------------------|
|--------------------------------------------------------------|

|-----------------------------------------------------------------|
|----------------------------------/10---10v---10v---10---10---10-|
|----------------2h3p2---2----2--------7-----7-----7----7----7----|
|-5-4-2-0--0-2-4-------2----2---2---------------------------------|
|-----------------------------------------------------------------|
|-----------------------------------------------------------------|

|-8b--10-8b--10-8b--8h10p8------------------10p8----10p8---10p8-...
|--------------------------10-10v----8h10p8-----10p8---10p8-----...
|-----------------------------------------------------------------
|-----------------------------------------------------------------
|-----------------------------------------------------------------
|-----------------------------------------------------------------

|-10b--8-10-12b13-12-10----10b-12-10-------10b-12-10---------------|
|-----------------------12-----------12-10-----------12-10---------|
|----------------------------------------------------------10-9-7--|
|------------------------------------------------------------------|
|------------------------------------------------------------------|
|------------------------------------------------------------------|

|----------------------------------------
|---------------0--0-0-0-0--------------------
|-----7-9br-7---1--1-1-1-1---------------------
|-7-9-----------0--0-0-0-0----------------------
|---------------2--2-2-2-2------3-0-------------
|---------------------------0/3-----3--------


Pura cáscara el sindicato, puro espamento el candidato,
la solución, la salvación, todo puro cuento.
De pura uva decía ser el vino, y a pruebas pude entender
que la pureza: lindo paquete para vender.

ESTRIBILLO

	    Otra vez		viejas historia...
|-7-7--7---------------|
|-8-8--8--7--8-8-6-6-5-|
|-7-7--7--7--7-7-------| X4
|---------7------------|
|----------------------|
|----------------------|


|-7-8p7-----------------------7-8p7----------------------|
|-8-----8---------------------8-----8--------------------|
|-7-------7-------7---7-9br---7-------7--9br9-7-9b-7-9-7-|
|-------------7-9---9------------------------------------| x2
|--------------------------------------------------------|
|--------------------------------------------------------|

|-7-----14----14-|-------14-14h15p14--------14-14---14-|--|
|-8-/15----15----|----15-------------15-----15-15------|--|
|----------------|-14-------------------14--------14---|--|
|----------------|-------------------------------------|x3|
|----------------|-------------------------------------|--|
|----------------|-------------------------------------|--|

Con Fade Out
|-7-8p7-----------------------7-8p7----------------------|
|-8-----8---------------------8-----8--------------------|
|-7-------7-------7---7-9br---7-------7--9br9-7-9b-7-9-7-|
|-------------7-9---9------------------------------------|x2 
|--------------------------------------------------------|
|--------------------------------------------------------|

Creo k esta bastante parecida a la version de esquivando.

Te llevo con tanta fiebre en la piel
Aguante La Renga y Cuerda Floja!!!!

http://cuerdafloja.webcindario.com

Fuente original ATAME [www.atame.org]
Colaborador original: Mariano Kanesic [cuerda_floja_rnr@hotmail.com]

Fuente: tusacordes.com