a b c d e f g h i j k l m n o p q r s t u v w x y z 0-9

El Viento Que Todo Empuja

La Renga

			
INTRO

6/---------------------------------------------------------/
5/-7?--------------7-----------3?-7-------------7----------/
4/---6-8-6-5-3-------6-8-6-5-3------6-8-6-5-3-----6-8-6-5-3/
3/-------------3------------------------------3------------/
2/---------------------------------------------------------/
1/---------------------------------------------------------/

VIENTOS
 ESTO LO HACEN UNOS CAÑOS PERO ESTE ARREGLO DE GUITARRA 
SUENA BIEN, SI TIENEN UNA PEDALERA LE PUEDEN DAR ALGUN EFECTO BUENO 
EN REALIDAS SON 6 TRASTES MÁS AGUDO PERO CON LA GUITARRA NO QUEDA BIEN, HÁGANLO COMO LES GUSTE
6/---------------------------------------------------------/
5/---------------------------------------------------------/
4/--3-------------3----------3---------------------3-------/
3/----2-3-2-3-5-----2-3-2-1----2-3-2-3-5-5?3-2-3-2---2---2-/
2/-------------------------------------------------------3-/
1/-------------------------------------------------------2-/

RIFF 1
LO HACE DESPUES DE ¨ SOLO ESO SOLO ESO ¨ ESCUCHENLO BIEN QUE ES DIFICI CAER EN TIEMPO 
6/---------------------------------------------------------/
5/--2S3-3---3S4-4---4S5-5---5S6-6--------------------------/
4/--------3-------4-------5-------6S3----------------------/
3/---------------------------------------------------------/
2/---------------------------------------------------------/
1/---------------------------------------------------------/

RIFF 2
LO HACE DES PUES DE ¨ DESPIERTA EN MI EL VIENTO QUE TODO EMPUJA ¨
BÚSQUENLE LA VUELTA PORQUE NO ESTA DEL TODO BIEN 
6/---------------------------------------------------------/
5/---------------------------------------------------------/
4/---------------------------------------------------------/
3/----------------------7-5-6-3----------------------------/
2/--8-6-5-6-5-6-8-6-5-6------------------------------------/
1/---------------------------------------------------------/


SOLO

6/--------------------------------------------------------->
5/--------------------------------------------------------->
4/--------------------------------------------------------->
3/-7?--------------7-----------3?-7-------------7---------->
2/---6-8-6-5-3-------6-8-6-5-3------6-8-6-5-3-----6-8-6-5-3>
1/-------------3------------------------------3------------>



------------7----------------------------------------------/
------------7----------------------------------------------/
------------9----------------------------------------------/
--3-2-7H9P7-9----------------------------------------------/      
------------8----------------------------------------------/
------------7----------------------------------------------/



EL FINAL DESPUÉS DEL PUNTEO YO LO HAGO ASI

6/----7
5/----7-
4/----9-- EN ESTA POSICIÓN HACE QUILOMBO CON LA PUA EN 
3/----9--/ EL TASTE 12 DESPUES TANQUE HACE UN CORTE Y 
2/----8-/  LO TERMINAS TOCANDO ESTO UNA VES ESTO Y LO 
1/----7/   ARRASTRA HACIA EL CLAVIJERO

SI NO ME ENTENDISTE ESCUCHA EL FINAL DEL TEMA Y TE VA  QUEDAR CLARO
  


  
Estructura:

INTRO

        Re
Hoy me detuve en tu mirada

que raja el velo del dolor

y supe que hay algo mas

que percibir
          Mi                Si
en este mundo que todo 
          Sol              Re
lo muele y lo desgarra.

Perdido por perdido ya ves
da lo mismo vivo o muerto
Pero tu alma es otra cosa,
tu alma es
la que te mueve tu lama es
mi razón, tu alma es la fuerza.

El águila muerte siempre vuelve
y afina su aguda vista
hoy cualquiera puede morir
sin saber como fue vivir
yo solo espero sin dormirme en mis sueños
estar tan lejos, lejos de esta ignorancia.

La                   Re/RIFF1
Solo eso, solo eso
La                        Do                       Re/RIFF2
despierta en mi el viento que todo lo empuja
La                   Re/RIFF1
Solo eso, solo eso,
La                        Do             Re/RIFF2***
que mas puedo esperar, solo eso.

EN EL ESTRIBILLO EL TONO RE ES POR SI LO TOCAS CON 2 VIOLAS PERO SI ES UNA SOLA SE HACE EL RIFF

***: ESTO SE LLAMA NOTA FANTASMA AVECES VA Y AVECES NO SOLO HAY QUE ESCUCHARLO




VIENTOS

Y mi mirada puede ver 
por la rejilla de tus ojos
para espiar tu corazón
que se quedo
con un pedazo de mi vida
al tiempo que yo, yo brote de tu sangre.
                               ---
Hoy que no hay tiempo que perder / ESTA PARTE SOLO LLEVA UN 
que todo anda a reloj            / POCO DE BATERIA Y NADA 
que se destruye sin razón        / MAS
                               ---
                                  Re 
y la vida muere en un discurso
y alguien se encarga de encerrarte
y otro prepara el fin del mundo
y tan lejana que da la esencia


                                       Mi            Si
que solo el lecho de encontrarte para mi
             Sol                             Re
le da sentido, le da sentido a mi vida

Solo eso,solo eso....

VIENTOS

SOLO




BUENO ESPERO QUE ESTE BIEN.
DUDAS, INSULTOS, COMENTARIOS SOLO MANDEN UN E-MAIL
SI ALGUIEN TIENE EL SOLO DE CUANDO VENRAN O VENENO POR FAVOR PASENMELO 
                  HEY,HEY,MY,MY,ELROCKANDROLLNOMORIRAJAMAS
                              CHAU GRACIAS POR TODO DE TODO CORAZON

Fuente original ATAME [www.atame.org]
Colaborador original: foco [lucas_rengo14@yahoo.com.ar]

Fuente: tusacordes.com