a b c d e f g h i j k l m n o p q r s t u v w x y z 0-9

El Viejo

La Renga

			
E|---0---0------------3----4--
A|-----5--4----3--------------
D|----------------------------
G|----------------------------
B|----------------------------
e|----------------------------

ESTO DESPUES SE HACE IGUAL PERO EN ``LA`` OSEA

E|----------------------------
A|---0---0------------3----4--
D|-----5--4----3--------------
G|----------------------------
B|----------------------------
e|----------------------------


ANTE CUALQUIER CONSULTA MI MSN ES NAPECEBALLOS@HOTMAIL.COM
PREGUNTAN NO HAY DRAMA

Fuente: tusacordes.com