a b c d e f g h i j k l m n o p q r s t u v w x y z 0-9

El Twist Del Pibe

La Renga

			
e---------------------------------------------------------------------------------------------------------
b--12-------12-------12--------12--12-------12-----------------------------------------------------
g--12-------12-------12--------12--12-------12----14?16--14--12--14?14?16?14?16-
D------14-------14-------14-------------14-----------------------------------------------------------
A--------------------------------------------------------------------------------------------------------
E--------------------------------------------------------------------------------------------------------

e---------------------------------------------------------------------------------------------------------
b--------------------------------------------------------------------------------------------------------
g---14--12--14?14?16 14?16--14--12--11--12--11----------------------12--14?14?16
D----------------------------------------------------------------12--14--12--14----------------------
A--------------------------------------------------------------------------------------------------------
E--------------------------------------------------------------------------------------------------------

e---------------------------------------12-12------12------12--15--12-------12---------------------
b-------------------15--15--12--15----------15------15-----------------15-------------------------
g---14?16--12---------------------------------------------------------------------------------------
D--------------------------------------------------------------------------------------------------------
A--------------------------------------------------------------------------------------------------------
E--------------------------------------------------------------------------------------------------------


e-----------------12-------------------------------------------------------------------------------------
b--12--13--15------15--12--13--12-------12--13--12---------------------------------------------
g-----------------------------------------14-----------------14--12?14?16--14--12-------------
D--------------------------------------------------------------------------------------------14---------
A--------------------------------------------------------------------------------------------------------
E--------------------------------------------------------------------------------------------------------


Bueno aca tienen el solo bien sacado, los demas que hay en la pagina no estan del todo mal, pero aca lo tienen perfecto

Fuente original ATAME [www.atame.org]
Colaborador original: Galla [rama_gualicho@hotmail.com]

Fuente: tusacordes.com