a b c d e f g h i j k l m n o p q r s t u v w x y z 0-9

El Twist Del Pibe

La Renga

			
Vibrato>>>                 ~
   Estiradas>>                b
   Estirar y bajar>>>         ba
   Slide>>>                   s
   Sonidos armónicos>>>       <>
   Ligados ascendentes>       h
   Ligados descendentes>      p
   Se mantiene la estirada>   /


    SEGUNDO SOLO DE GUITARRA                                                                            
E  ----------------------------------------10b-10b-10b-10b-10ba-------------------
B  ----10b-10b-10b-10b-10b-10b-10b-10b-10b----------------------------------------
G  --9----------------------------------------------------------------------------
D  -------------------------------------------------------------------------------
A  -------------------------------------------------------------------------------
E  -------------------------------------------------------------------------------
          *                                                            **
E  --12b-12b-12b-12b-12ba-15b-15b-15ba-12-------15h17-17b-17b-17ba-15-17-17ba-15--
B  ---------------------------------------15s17-----------------------------------
G  -------------------------------------------------------------------------------
D  -------------------------------------------------------------------------------
A  -------------------------------------------------------------------------------
E  -------------------------------------------------------------------------------
           Van aumentando los tonos que estira: escuchar para sacarlo bien
E  -------------------------------------------------------------------------------
B  --17----17b-17b-17b-17b--------------------------------------------------------
G  -------------------------------------------------------------------------------
D  -------------------------------------------------------------------------------
A  -------------------------------------------------------------------------------
E  -------------------------------------------------------------------------------

   * Estira 1 tono y medio
   
   ** Estira medio tono

Fuente original ATAME [www.atame.org]
Colaborador original: Federico [el_revbelde@hotmail.com]

Fuente: tusacordes.com