a b c d e f g h i j k l m n o p q r s t u v w x y z 0-9

El Twist Del Pibe

La Renga

			
este solo esta muy bien sacado, esta en mi-menor y la base de los acordes son (E5-C5-G5-B5)
si lo publican en algun, por favor dejen mi derecho de autor 
Gracias

                                                                             
E||--------------------------------------|----------------------------------|
B||--12--12--12--------------12h10-------|----------------------------------|
G||--12--12--12--9-12--9-12--------12-14-|--14b---14r-12-14----12h14-11--12-|
D||--------------------------------------|----------------------------------|
A||--------------------------------------|----------------------------------|
E||--------------------------------------|----------------------------------|


                                                                      
----------------------------------|----------------------------------|
----------------------------------|--------15b---15-17--15-17--15-17-|
---------------12--12h14h12h14b---|----12----------------------------|
--12--12-14-----------------------|----------------------------------|
----------------------------------|----------------------------------|
----------------------------------|----------------------------------|


                                                                              
--------------------------------------|--------------------------------------|
--17b-17-15-17-17-15--15--17-15----12-|---13--15-15-13-12-13--12----12----13-|
--------------------------------------|--------------------------14----------|
--------------------------------------|--------------------------------------|
--------------------------------------|--------------------------------------|
--------------------------------------|--------------------------------------|


                              
----------------------------||
--12------------------------||
-----14-12-14b---12--12/14--||
----------------------------||
----------------------------||
----------------------------||

Referencia

h:hammer on
b: bend
/: slide



		ppppppppppp		A		     A	
		pp        p            AAA 		    AAA	
 		pp	 p	      AA AA		   AA AA 	
		pp	p	     AA	  AA              AA   AA
		pp     p	    AA	   AA		 AA     AA
  		ppppppp		    AAAAAAAAA		 AAAAAAAAA
 		pp		   AA	    AA 		AA       AA	
		pp		  AA	     AA	       AA         AA		
		pp		 AA	      AA      AA	   AA
 		pp              AA             AA    AA             AA

Fuente original ATAME [www.atame.org]
Colaborador original: pablo alberdi [pablo_alberdi@hotamail.com]

Fuente: tusacordes.com