a b c d e f g h i j k l m n o p q r s t u v w x y z 0-9

El Terco

La Renga

			
esta es la intro que yo mismo saque.para mi gusto suena
bastante bien espero que les sirva.

e-------------------------------------0-----0--
B---------1-3-1----1---------------------------
G-0-2-2-2--------2---2-0---------2-------------
D------------------------2-2-2-2----2----2-----
A------------------------0-0-------------------
E----------------------------------------------

e-------------------------------------------
B---------1-----1-----1-----------------1-1-
G-0-2-2-2---0-2---0-2---2-0-----------------
D----------------------------2-2----2-------
A----------------------------3-3-3----------
E-------------------------------------------

e-----------------
B-1-4-3-1---------
G---------2-2-----
D-----------------
A-----------------
E-----------------

e-7-8-7--------------------------------------
B--------7-8-7-------------------------------
G--------------9-8---------------------------  ESTO VA
D------------------10-9-7-------------2-5-7--   X 2
A-------------------------10-9--------2-5-7--
E------------------------------8-10---0-3-5--

despues hace asi:
---D--C--G--   X4

esta transcripcion se la dedico a mi primo dj:
       RAUL ARRIOLA el mejor dj de argentina
DE ARIEL O MAS CONOCIDO COMO APARIPI

Fuente original ATAME [www.atame.org]
Colaborador original: ariel ricardo velardez [ariel_velardez]

Fuente: tusacordes.com