a b c d e f g h i j k l m n o p q r s t u v w x y z 0-9

El Terco

La Renga

			
intro sin distorcion:

       
       A                                 
 |---------------------------------------|
 |-------5----------------------5-----5--|
 |-------5----------------------5-5---5--|
 |-5h7-7---5h7-5--5-7-5-------------5----|
 |-0---0---0---0--0-0-0-7-7-7-7----------|
 |------------------------5-5-5----------|




                                   C
 |---------------------------------------|
 |---------------------------------------|
 |---------5-----------------------------|
 |-5-5h7-7-5-5h7-5--5-7-5------5-5-------|
 |-0-0---0---0---0--0-0-0--5/--3-3-3-5-7-|
 |---------------------------------------|



        
            
           ~
 |---------------------------------------|
 |-------------5-------------------------|
 |---5-5/-7---5-------------------------|
 |-5-5-----------------------------------|
 |---------------------------------------|
 |---------------------------------------|



  
  intro con distorcion 

   
   A                              ~   ~
 |---------------------------------------|
 |--------------------------------5---5--|
 |--------------------------------5---5--|
 |-5h7-7-7--5h7-5--5-7-5------------7----|
 |-0---0-0--0---0--0-0-0-7--7-7-7--------|
 |--------------------------5-5-5--------|




                                C
 |---------------------------------------|
 |---------------------------------------|
 |---------------------------------------|
 |-7-5--5h7-7-7--5h7-5--5-7-5---5-5------|
 |-0-0--0---0-0--0---0--0-0-0-5-3-3--3-7-|
 |---------------------------------------|




     ~
 |---------------------------------------|
 |-------------8-------------------------|
 |--------5-7/---------------------------|
 |-5-5--7--------------------------------|
 |---------------------------------------|
 |---------------------------------------|



   
  Base:

 
   A                             ~   ~
 |-----------------------------------------|
 |-------------------------------5---5-----|
 |-------------------------------5---5-----|
 |-5h7-7-7--5h7-5--5-7-5-----------7---7-5-|
 |-0---0-0--0---0--0-0-0-7-7-7-7---------0-|
 |-------------------------5-5-5-----------|
   cuando mi instinto...



                          C           ~
 |---------------------------------------|
 |---------------------------------------|
 |---------------------------------------|
 |-5h7-7-7-5h7-5--5-5-7-5---5-5-----5-5--|
 |-0---0-0-0---0--0-0-0-0-5-3-3-3-7------|
 |---------------------------------------|
   supe que...



                   A
 |---------------------------------------|
 |--------9------------------------------|
 |---5-7/--------------------------------|
 |-7------------5h7-7-7--5h7-5--5-7-5----|
 |--------------0---0-0--0---0--0-0-0----|
 |---------------------------------------|
                y desafiando a la luz...



           ~   ~
 |---------------------------------------|
 |---------5---5-------------------------|
 |---------5---5-------------------------|
 |-----------7----7-5-----5h7-7-7--5h7-5-|
 |-7-7-7-7----------0-----0---0-0--0---0-|
 |---5-5-5-------------------------------|
                          solo tube...



            C           ~
 |---------------------------------------|
 |---------------------------------------|
 |---------------------------------------|
 |-5-7-5---5-5-5-5-----------------------|
 |-0-0-0-5-3-3-3-3-5-5-------------------|
 |-----------------3-3--3----------------|



  
  Coro:

 
    D                  C  ~  G
 |---------------------------------------|
 |---------------------------------------|
 |-------5-------------------------------|
 |-7-7-7-5-7-7-7--7-7-5-5----------------|
 |-5-5-5---5-5-5--5-5-3-3-3--5-5-5-5-5---|
 |---------------------------3-3-3-3-3---|
   cuanto mas...



   D                   C          G  ~
 |---------------------------------------|
 |---------------------------------------|
 |-------5-------------------------------|
 |-7-7-7-5-7-7-7--7-7--5-5-5-5-5---------|
 |-5-5-5---5-5-5--5-5--3-3-3-3-3-5-5-----|
 |-------------------------------3-3-3---|
   si hasta que...



   D                   C          G
 |-----------------------------------------|
 |-----------------------------------------|
 |-------5---------------------------------|
 |-7-7-7-5-7-7-7--7-7--5-5-5-5-5-----------|
 |-5-5-5---5-5-5--5-5--3-3-3-3-3-5-5-5-5-5-|
 |-------------------------------3-3-3-3-3-|
   cuanto mas...
 


                                   ~ 
   D                    C          G ~ ~
 |---------------------------------------|
 |---------------------------------8-8-8-|
 |-------5-------------------------7-7-7-|
 |-7-7-7-5-7-7-7--7-7---5-5-5-5-5--------|
 |-5-5-5---5-5-5--5-5---3-3-3-3-3--------|
 |---------------------------------------|
   SI SIEMPRE...


 
   Base:  


   A                             ~   ~
 |-----------------------------------------|
 |-------------------------------5---5-----|
 |-------------------------------5---5-----|
 |-5H7-7-7--5H7-5--5-7-5-----------7---7-5-|
 |-0---0-0--0---0--0-0-0-7-7-7-7---------0-|
 |-------------------------5-5-5-----------|
   CUANDO MI...



   A                     C       ~ ~ ~
 |------------------------------------------|
 |------------------------------------------|
 |-------------------------------------5----|
 |-5H7-7-7-5H7-5-5-7-5---5-5-----5-7-7---7-|
 |-0---0-0-0---0-0-0-0-5-3-3-37------------|
 |------------------------------------------|
   SUPE QUE LA LIBERTAD...



   A                            ~   ~
 |----------------------------------------|
 |------------------------------5---5-----|
 |------------------------------5---5-----|
 |-5H7-7-7--5H7-5-5-7-5-----------7---7-5-|
 |-0---0-0--0---0-0-0-0-7-7-7-7---------0-|
 |------------------------5-5-5-----------|
   Y DESAFIANDO...



   A       ~ ~ ~ ~  C       G
 |-------------------------------3-------|
 |-------------------------------3-------|
 |---------------------------------------|
 |-5H7-7-7-7-7-7-7--5-5-5-5-5-5----------|
 |-0---0-0----------3-3-3-3-5-5----------|
 |--------------------------3-3----------|
   SOLO TUBE...



  CORO:


   D               C     ~  G
 |---------------------------------------|
 |---------------------------------------|
 |-------5-------5-----------------------|
 |-7-7-7-5-7-7-7-5-5-5-------------------|
 |-5-5-5---5-5-5---3-3-0-3--5-5----------|
 |--------------------------3-3--0-3-----|
   CUANTO MAS...



   D                   C       G  
 |---------------------------------------|
 |---------------------------------------|
 |-------5---------------------0-0-0-2---|
 |-7-7-7-5-7-7-7--7-7--5-5-5-5-5-5-5-----|
 |-5-5-5---5-5-5--5-5--3-3-3-3-----------|
 |---------------------------------------|
   SI ANTES QUE...



   D                    C        G
 |---------------------------------------|
 |---------------------------------------|
 |-------5-------------------------------|
 |-7-7-7-5-7-7-7--7-7---5-5-5-5----------|
 |-5-5-5---5-5-5--5-5---3-3-3-3-5-5-5-5--|
 |------------------------------3-3-3-3--|
   CUANTO MAS...



   D               C       G
 |-------------------------3---3---------|
 |-------------------------3---3---------|
 |-------5-------5---------4---4---------|
 |-7-7-7-5-7-7-7-5-5-5-5-5-5-5-----------|
 |-5-5-5---5-5-5---3-3-3-3-5-5-----------|
 |-------------------------3-3-----------|
   SI SIEMPRE...



  INTERMEDIO:
  

   D2
 |------------------------------|
 |-------5-------5--------------|
 |-----5-----5-----5---5--------|
 |---7---------7-----7---7-7----|
 |-5-------5--------------------|
 |------------------------------|



 |---------------------------|
 |-------5--------5----------|
 |-----5-----5------5---5----|
 |---7---------7------7------|
 |-5-------5-----------------|
 |---------------------------|



 |---------------------------|
 |-------5-------5-----------|
 |-----5-----5-----5---5-----|
 |---7---------7-----7-------|
 |-5-------5-----------------|
 |---------------------------|



 |-----5-5-----5-------------|
 |---7-----7-----7-----------|
 |-5---------5-----5---------|
 |---------------------------|
 |---------------------------|
 |---------------------------|


              ~     ~
 |----8/---------------------------------|
 |-8------7-8--------------------------|
 |--------9-----9-7-5--------------------|
 |----------------------7-5-4--5-4-------|
 |---------------------------------3h5---|
 |---------------------------------------|



    E G A
 |----------------|
 |----------------|
 |----------------|
 |--2-5-7---------|
 |--2-5-7---------|
 |--0-3-5---------|


 
   D2       ~      ~
 |----8----------------------------------|
 |-8----7-8----------------------------|
 |------9------9-7-5---------------------|
 |--------------------7-5-4-5-4----------|
 |-------------------------------53-----|
 |---------------------------------------|




   E G A
 |---------------------------------------|
 |------------/--------/--------/-----|
 |-----------/--------/--------/------|
 |-2-5-7----/--------/--------/-------|
 |-2-5-7---/--------/--------/--------|
 |-0-3-5---------------------------------|




  BASE 2:


   A   ~       ~   G        D  
 |-----------------------3---------------|
 |-----------------------3---------------|
 |-----------------------4---------------|
 |-----------------5-5-5-5--7-7-7-7------|
 |-----------------5-5-5-5--5-5-5-5------|
 |-5-5-5---5-5-5--3-3-3-3---------------|



   A   ~   ~  ~  ~  G        D
 |------------------------3--------------|
 |------------------------3--------------|
 |------------------------4--------------|
 |------------------5-5-5-5--7-7-7-7-----|
 |-7-7--------------5-5-5-5--5-5-5-5-----|
 |-5-5-5---5--5--5--3-3-3-3--------------|



   A  ~    ~  ~  ~  G        D
 |------------------------3--------------|
 |------------------------3--------------|
 |------------------------4--------------|
 |------------------5-5-5-5--7-7-7-7-----|
 |-7-7--------------5-5-5-5--5-5-5-5-----|
 |-5-5-5---5--5--5--3-3-3-3--------------|



   A   ~   ~  ~  ~  G        D
 |------------------------3--------------|
 |------------------------3--------------|
 |------------------------4--------------|
 |------------------5-5-5-5--7-7-7-7-----|
 |-7-7--------------5-5-5-5--5-5-5-5-----|
 |-5-5-5---5--5--5--3-3-3-3--------------|



  BASE:


   A                          ~   ~
 |---------------------------------------|
 |----------------------------5---5------|
 |----------------------------5---5------|
 |-5H7-7-7--5H7-5-7-5-----------7---7-5--|
 |-0---0-0--0---0-0-0-7-7-7-7---------0--|
 |----------------------5-5-5------------|
   SI SIEMPRE LEVANTO...



   A   ~  ~  ~  ~  ~ C         ~
 |----------------------------------------|
 |--------------------------------------8-|
 |----------------------------------5-7/--|
 |-5H7-7--7--7--7--7-5-5-----5-5--7-------|
 |-0-----------------3-3-37--------------|
 |----------------------------------------|
   Y SI...



   A                             ~
 |---------------------------------------|
 |---8---8---8---8---8----8--5---5-------|
 |-7/--7/--7/--7/--7/---7/---5-7-5-------|
 |----------------------------------7-5--|
 |----------------------------------0-0--|
 |---------------------------------------|
   PARA PEGARME...



   A   ~  ~  ~      ~ ~  ~  ~ C       G
 |------------------------------------------3--|
 |------------------------------------------3--|
 |------------------------------------------4--|
 |-5H7-7--7--7--5H7-7-7--7--7-5-5-5-5-------5--|
 |-0------------0-------------3-3-3-3-5-5-5-5--|
 |------------------------------------3-3-3-3--|
   SIEMPRE...


  
  CORO:


   E                D     ~  A
 |---------------------------------------|
 |---------------------------------------|
 |-------7-------7-----------------------|
 |-9-9-9-7-9-9-9-7--7-7------------------|
 |-7-7-7---7-7-7----5-5-0-5--7-7---------|
 |---------------------------5-5--0-5----|
   CUANTO MAS...



   E                D     ~  A     ~
 |---------------------------------------|
 |---------------------------------------|
 |-------7-------7-----------------------|
 |-9-9-9-7-9-9-9-7--7-7------------------|
 |-7-7-7---7-7-7----5-5-0-5--7-7---------|
 |---------------------------5-5-0-5-----|
   SI ANTES QUE...



   E               D     ~  A     ~
 |---------------------------------------|
 |---------------------------------------|
 |-------7-------7-----------------------|
 |-9-9-9-7-9-9-9-7-7-7-------------------|
 |-7-7-7---7-7-7---5-5-0-5--7-7----------|
 |--------------------------5-5-0-5------|
   CUANTO MAS...



   E                D
 |---------------------------------------|
 |---------------------------/--------/|
 |-------7-------7----------/--------/-|
 |-9-9-9-7-9-9-9-7--7------/--------/--|
 |-7-7-7---7-7-7----5-----/--------/---|
 |---------------------------------------|



     A     E
 |------------------------||
 |------------------------||
 |------------------------||
 |---------9-------------||
 |---7--7--7-------------||
 |---5--5-----------------||
    HASTA EL FINAL...



    
   / = estirar
   ~ = vibrato
    = slide

   / = estirar y volver

    /
   /   = arrastrar la pua por toda la cuerda

Fuente original ATAME [www.atame.org]
Colaborador original: Nookie [alpiojo2001@hotmail.com]

Fuente: tusacordes.com