a b c d e f g h i j k l m n o p q r s t u v w x y z 0-9

El Satiro De La Mala Leche

La Renga

			
La Renga / El sátiro de la mala leche 1993

Intro;
Guitarra eléctrica sin distorsión

e|-------------9~-999-------5~-555-------2~-222-------5---|
B|---6-6----7--8~-888--4-6--4~-444--4-6--1~-111--4-6--5---|
G|---7----8----9~-999--5-7--5~-555--5-7--2~-222--5-7--6---|
D|----------------------------------------------------5---|
A|----------------------------------------------------7---|
E|----------------------------------------------------5---|

  A7       B7        E7        F#m       Bm        Am7
O|||||5  O|||||7   ||||O|5   ||||||    ||||||    OOOOOO
|||O||   |||O||    ||O|||    O|||||    xOOOOO    ||||||
|O||||   |O||||    |O|O||    |||O||    ||||O|    |O||||
||||||   ||||||    ||||||    |OO|||    ||OO||    ||||||
||||||   ||||||    ||||||    ||||||    ||||||    ||||||

Final:                      G   A
|------99-----77-----55-----3---5--------------|
|------88-----66-----44-----3---5--------------|
|------99-----77-----55-----3---5--------------|
|---------------------------3---7--------------|
|---------------------------5---7--------------|
|---------------------------3---5--------------|

Estructura:

   A7
Tenía veintiocho nunca nunca la ponia

su problema sexual crecía día a día
          B7             E7
hasta que ya no pudo más,
                      A7  E7
la leche hervía que hervía

       A7
Se compró un sobretodo largo hasta los tobillos

y sin ropa interior se fue a pasear por Caballito
    B7            E7                  A7  E7
a buscar una mujer  que saciara su placer

      F#m
Antes de la madrugada se paró en una esquina
                               A7
a esperar que apareciera una linda palomita
      F#m                      Bm
cuando de repente vio a una morocha cautivante
         Am7                B7                 A7  E7
que se acercaba a las garras del inesperado amante

      A7
La arrinconó contra la pared le levantó la minifalda

le rompió la medibacha y empezó a manosearla
       B7                                  A7      E7
el no había tenido antes, tal terrible sentimiento

           A7
Pero los gritos de la guanaca se escucharon hasta el cielo

el se puso tan nervioso que no encontraba el agujero
           B7                                   A7     E7
cuando se quiso acordar, se vio rodeado de patrulleros


Intermedio:

e|-------------9~-999-------5~-555-------2~-222-------5--x---|
B|---6-6----7--8~-888--4-6--4~-444--4-6--1~-111--4-6--5--5---|
G|---7----8----9~-999--5-7--5~-555--5-7--2~-222--5-7--6--7---|
D|----------------------------------------------------5--6---|
A|----------------------------------------------------7--7---|
E|----------------------------------------------------5--x---|

       A7
Y ese fue el fin de su suerte lo llevaron detenido,

no fornicó, dejó fornicar, y encima lo forniciaron
           B7                                      A7
cuando le dieron la bienvenida, los muchachos de Tedebo...
                               A7/ //                        Final
Cuando le dieron la bienvenida       los muchachos de Tedebo


Solo de saxo final: A7// ////

Fuente original ATAME [www.atame.org]
Colaborador original: Mati [matiasp_motoralmaisange@hotmail.com]

Fuente: tusacordes.com