a b c d e f g h i j k l m n o p q r s t u v w x y z 0-9

El Rito De Los Corazones Sangrando

La Renga

			
Intro

G---------------
D---------------
A---------------
E----7-x9-----

¿Quién te trajo hasta mi?.....

Riff 1
G----------------------------
D----------------------------
A-7--77---8-7-5--------------
E---------------7----7-7-7-7-

cuando pasa de Riff 1 al Riff 2 no se toca SI va directo a SOL

que no existo..............

Riff 2

G----------------------------------------------------------
D----------------------------------------------------------
A---------------3--5-5--5-5-7-5----------------------------
E-3--3-3-3-3--5----------------7-6-5--5-5-6-6-6-7-7-7-7-7-7

Termina en...........
G------------------
D------------------
A------------------
E----7-7-7-7-7-77--
En toda la canción hace estos dos Riffs 

Esta es una de las mejores canciones de este grupo, espero que les sirva 
esta tablatura
Saludos!

Fuente original ATAME [www.atame.org]
Colaborador original: Alejandro Wasil [alewasil@hotmail.com]

Fuente: tusacordes.com