a b c d e f g h i j k l m n o p q r s t u v w x y z 0-9

El Rito De Los Corazones Sangrando

La Renga

			
-------------------------------------
Notaciones
-------------------------------------
7^9 = Ligado

7^10 = Estira la cuerda hasta hacerla sonar 
         como la nota escrita en el parentesis	

/17 = desliza el dedo hasta llegar a la nota

~ = vibrato

B                           E D E F E D
Quien te trajo hasta mi
B                           E D E F E D
corazon sangrando
B                           E D E F E D
respira un poco en mi pecho
B                           E D E F E D
y me hace sentir

G        D     A   A#       B
que no existo mas que para vos.

G        D     A   A#       B
No existo mas, mas que para vos.
G        D     A   A#       B
No existo mas, mas que para vos.


Redondos ojos negros
que me cegan de su tristeza
todo lo encuentro,
cuando te toco.

Todo, todo hasta la muerte
que me seduce, y me hace bailar
este el rito de los corazones sangrando.

PUNTEO:
|-----------------------------------------------------------------------------------------|
|-9^10~---------------------------------------- 10--------------------12--15------------|
|-9^10~-7-9-9^7---7------------7-9^109-7-9^10---9^10-9-7-9-7---/11-/13--16/14--10-|
|--------------- 9---7-9------7-9---------------------------------9-----------------------|
|-------------------------/9--------------------------------------------------------------|
|-----------------------------------------------------------------------------------------|


 
|---------------------|
|---------------------|
|-9-7-7-----------7---|
|-------9-----7-9---9-|
|---------7-9---------|
|---------------------|


 
|---------------------------------------------------------------------|
|--------10-----------------------------------------------------------|
|-9^10--9^109-9-7^9-----------7---9^10-7-------------------------|
|----------------------------4-7---9-----------/14-16-16^14-16-16-16--|
|----------------------2-2/5------------------------------------------|
|---------------------------------------------------------------------|

                                            
                                            con wah wah
|--------17----------------17-17-7--------|-7----------------------------------|
|-17^19----17-15-17^19---------10-7---|---10-7-----------------------------|
|---------------------------------------9-|--------9-7-9-7-------7---7-9^10--|
|-----------------------------------------|----------------9-7-9---9-----------|
|-----------------------------------------|------------------------------------|
|-----------------------------------------|------------------------------------|
Corazon sangrando,
el que te trajo a mi
ahora me lleva a vos
y me hace sentir

Que no existo mas que para vos.
No existo mas, mas que para vos.
No existo mas que, mas que para vos.

Final:Sol Re La La# Six4.

NOS VEMOS!!

AGUANTE NADA NUESTRO ROCK AND ROLL!

Fuente original ATAME [www.atame.org]
Colaborador original: Jorge Omar Perea [squier@fullzero.com.ar]

Fuente: tusacordes.com