a b c d e f g h i j k l m n o p q r s t u v w x y z 0-9

El Rito De Los Corazones Sangrando

La Renga

			
-----------------------------------------------------
A este tema le hago Cover kon mi banda, Ahi va:
-----------------------------------------------------
 El guitarrista toca cualquier cuerda sin volumen, y
 despues le sube el volumen a la guitarra. en eso La
 bateria toca el hit-hat 2 veces junto al Vocalista
 diciendo Dos, Tres).La extructura de la cancion :
(Entre cada parte hay que dedjar un silencio)

[Intro]
[Riff] X4
[Outtro]

-----------------------------------------------------
 Intro
        |-------------------|
        |-------------------|
        |-------------------|
        |-7-7-7-7-7-7-7-7-7-|

 Riff
|--------------|--------------|--------------|-------------|
|--------------|--------------|--------------|-------------|
|-7-7-8-7-5----|-7-777-8-7-5--|-7-7-8-7-5----|-7-777-8-7-5-|
|-----------7--|-------------7|-----------7--|-------------|
 
|-------------------------------|    X2
|-------------------------------|  
|---------5-55-55---------------|
|-3-33-33----------55-66-7~~~~~-|

|-----------------------------------|
|-----------------------------------|
|---------5-55-55-------------------|
|-3-33-33---------55-66-7-77777777--|

Outtro

|---------------------|
|---------------------|
|-7-8-7-5-------------|
|---------77777777----|

------------------------------------------------------
(si me costo el blues del gallo malo ni se imaginan este))

http://www.geocities.com/acme_band/

Fuente original ATAME [www.atame.org]
Colaborador original: Juan Pablo Oller [vientoligero@hotmail.com]

Fuente: tusacordes.com