a b c d e f g h i j k l m n o p q r s t u v w x y z 0-9

El Rey De La Triste Felicidad

La Renga

			
LA RENGA - EL REY DE LA TRISTE FELICIDAD

Esto se hace todo con distorcion y wha wha en el punteo del medio...

Pre-Intro
e |-------------------------------/
B |-------------------------------/
G |-------------------------------/
D |-------------------------------/
A |----5-5-5-5---3-3-3-3----------/ X 2
E |----0-0-0-0---0-0-0-0----------/

INTRO:

e |------------------------------------------------------/
B |------------------------------------------------------/
G |--------10-10---------------------10-11-10-11--10-----/
D |-9-9----10-10--------12----9-9----10-11-10-11--10-----/
A |-9-9-----------------12----9-9------------------------/
E |-7-7-----------7-9---10----7-7------------------------/

INTRO x2

D                               B
  ¿Qué podemos hacer cuando se sienta mal?
D                                  B
  si está bancando su bronca masticando vidrios
D                         B
  ¿Quién lo quiere invitar a ver televisión?
G                            D
  ¿Quién sacará las astillas de su corazón?
A                     E                        G
  ¿Qué podrán decir? ¿Quién lo va a convencer?

INTRO x2

¿Qué podemos hacer cuando se sienta bien?

si está salvando su sueño anestesiándose

¿Quién lo quiere invitar con un electroshock?

¿Quién lamerá los rasguños de su desesperación?

¿Qué podemos decir? ¿Quién lo va a convencer?

INTRO

G                                            C
  Se ha convertido en daga el dolor de este tonto rey,
G                                      C
  rey de un reino sin mundo, reino que no tiene ley,
D                     A
  rey que se desangra pero aún tiene esperanzas,
C                           E                       G
  serás feliz siendo triste, rey qué puedo decirte.

PUNTEO:

Base B Fm# x4

Ahora wha wha ...             Rapido !
e |------------------------------------------------------------/
B |----3----Arrastra a----9-------------------------------------/
G |--2-----------------8------------8---------8----------10----/
D |--------------------------8--10-----8--10-----8--8--8-------/
A |------------------------------------------------------------/
E |------------------------------------------------------------/

Sigue Base D B x4

Ahora solo distorción
e |----------------------------------------------------------------------------/
B |-----12-12-12-12-12--9--10--12-12--10-9--9-9-9--8-8-8--7-6-7--6-7-8--9--12--/
G |--9-------------------------------------------------------------------------/
D |----------------------------------------------------------------------------/
A |----------------------------------------------------------------------------/
E |----------------------------------------------------------------------------/

Sigue distorción
e |----------------------------------------------------------------------------------------------------------/
B |----9--10--12-----9--10--12--12-12-12-12--10--9--8--9------9--10--12-----9--10--12--12-12-12---15-15--17--/
G |--9-------------9----------------------------------------9-------------9----------------------------------/
D |----------------------------------------------------------------------------------------------------------/
A |----------------------------------------------------------------------------------------------------------/
E |----------------------------------------------------------------------------------------------------------/

D                              B
  Nada podemos hacer cuando se sienta mal,
D                              B
  nada podemos hacer cuando se sienta bien,
A                                    G
  él es el rey de una maldición que lo hizo rey,
A                          E                       G
  será feliz siendo triste, rey qué puedo decirte.

INTRO x4

Y fin !...

Fuente original ATAME [www.atame.org]
Colaborador original: francisco [francisco_fta@hotmail.com]

Fuente: tusacordes.com