a b c d e f g h i j k l m n o p q r s t u v w x y z 0-9

El Rey De La Triste Felicidad

La Renga

			
esta es una correpcion del tema que yo mismo hice espero que
que les sirba. ahi va....

INTRO;
GUITARRA: con distorsión

e|----------------------------------------------|---------------------------------------------|
B|----------------------------------------------|---------------------------------------------|
G|----------------------------------------------|--4---4--10b-----------4---4---10-11-10-11-10|
D|----------------------------------------------|--4---4--10b------12---4---4---10-11-10-11-10|
A|--5-5-5-5-5-5--3-3-3-3-3--5-5-5-5-5--3-3-3-3-3|--2-0-2-----------12---2-0-2-----------------|
E|----------------------------------------------|--------------7-9-10-------------------------|
                                                                     x2

Re                           Sim
 Que podemos hacer cuando se sienta mal
Re                             Sim
 Si esta bancando su bronca masticando vidrios
Re                      Sim
 Quien lo quiere invitar,   a ver televisión
Sol                        Re
 Quien sacara las astillas,  de su corazón
La               Mi                        Sol7
 Que podrán decir  Quien lo va a convencer ¿eh?

e|---------------------------------------------|
B|---------------------------------------------|
G|--4---4--10b-----------4---4---10-11-10-11-10|
D|--4---4--10b------12---4---4---10-11-10-11-10| x2
A|--2-0-2-----------12---2-0-2-----------------|
E|--------------7-9-10-------------------------|

Re                           Sim
 Que podemos hacer cuando se sienta bien
Re                           Sim
 Si esta salvando su sueño anestesiándose
Re                Sim
 Quien lo invitar,   con un electroshock
Sol                         Re
 Quien sangrará las heridas,  de su desesperación
La                Mi                        Sol7
 Que podemos decir  Quien lo va a convencer ¿eh?

e|---------------------------------------------|
B|---------------------------------------------|
G|--4---4--10b-----------4---4---10-11-10-11-10|
D|--4---4--10b------12---4---4---10-11-10-11-10| x2
A|--2-0-2-----------12---2-0-2-----------------|
E|--------------7-9-10-------------------------|

Sol                                        Do
 Se ha convertido en daga el dolor de este tonto rey
Sol                                   Do
  Rey de un reino sin mundo, reino que no tiene ley
Re                  La
 Rey que se desangra  pero aún tiene esperanzas
Do                         Mi                       Sol7
 Serás feliz siendo triste,  rey que puedo decirte, ¿eh?

SOLO

Re                            Sim         Sim Re
 Nada podemos hacer cuando se sienta mal
Re                            Sim
 Nada podemos hacer cuando se sienta bien
Re                                 La
 Él es el rey de una maldición que lo hizo rey
Do                        Mi                      Sol7
 Serás feliz siendo triste, rey que puedo decirte ¿eh?

e|--------------------------|
B|--------------------------|
G|--4-------4---------------|
D|--4-------4---10b-------12|
A|--2---0---2---10b-------12|
E|--------------------7-9-10|
   uoh uoh uoh uooh

e|-----------------------------|
B|-----------------------------|
G|---------------10-11-10-11-10|
D|---------------10-11-10-11-10|
A|--2---0---2------------------|
E|-----------------------------|
   uoh uoh uoh  uah iah iah

Fuente original ATAME [www.atame.org]
Colaborador original: matias [matiasreynaud@hotmail.com]

Fuente: tusacordes.com