a b c d e f g h i j k l m n o p q r s t u v w x y z 0-9

El Rey De La Triste Felicidad

La Renga

			
TRANSCRIPCION: RODRIGO VALDÉS S. 
CUALQUIER DUDA O SUGERENCIA A: engraverchile@yahoo.com en la 
anterior teclee mal en la intro, ahora esta perfecta.



INTRO:


E |--------------------------------------------||
B |--------------------------------------------||
G |----7-7-7-7-/-4-4-4-4-/-7-7-7-7-/-4-4-4-4---||
D |----x-x-x-x---x-x-x-x---x-x-x-x---x-x-x-x---||
A |----5-5-5-5-/-2-2-2-2-/-5-5-5-5-/-2-2-2-2---||
E |--------------------------------------------||

E |-------------------------------------------------||
B |-------------------------------------------------||
G |---------10b----6-7-------------10-11-10-11--10--||
D |-9-7-9-3-10b-9--6-7---9-7-9-5---10-11-10-11--10--||  X 2
A |-9-7-9-5-----9--4-5---9-7-9-3--------------------||
E |-7-5-7-------7--------7-5-7----------------------||





Re                               Si
  ¿Qué podemos hacer cuando se sienta mal?
Re                               Si
  si está bancando su bronca masticando vidrios
Re                               Si
  ¿Quién lo quiere invitar a ver televisión?
Sol                          Re
  ¿Quién sacará las astillas de su corazón?
La                    Mi                      Sol
  ¿Qué podrán decir? ¿Quién lo va a convencer?


INTRO x2


¿Qué podemos hacer cuando se sienta bien?

si está salvando su sueño anestesiándose

¿Quién lo quiere invitar con un electroshock?

¿Quién lamerá los rasguños de su desesperación?

¿Qué podemos decir? ¿Quién lo va a convencer?

INTRO


Sol                                         Do
  Se ha convertido en daga el dolor de este tonto rey,
Sol                                         Do
  rey de un reino sin mundo, reino que no tiene ley,
Re                    La
  rey que se desangra pero aún tiene esperanzas,
Do                           Mi                     Sol
  serás feliz siendo triste, rey qué puedo decirte.



SOLO acompañamiento: Si Mi x4 Re Si x4



Re                             Si
  Nada podemos hacer cuando se sienta mal,
Re                             Si
  nada podemos hacer cuando se sienta bien,
La                                  Sol
  él es el rey de una maldición que lo hizo rey,
La                          Mi                      Sol
  será feliz siendo triste, rey qué puedo decirte.



INTRO: X 4.



CUALQUIER DUDA O SUGERENCIA A: engraverchile@yahoo.com

Fuente original ATAME [www.atame.org]
Colaborador original: Rodrigo Valdés S [engraverchile@yahoo.com]

Fuente: tusacordes.com