a b c d e f g h i j k l m n o p q r s t u v w x y z 0-9

El Revelde

La Renga

			
Esto es lo que hace el bajo 

1) Durante la canción:
 
Simbolo:  * dos toques rápidos de púa entre las dos notas

  E            B 	   A	
G------------|-----------|----------|
D------*-----|-----------|----------|
A-5-7-5-7----|------*----|------*---|
E------------|-5-7-5-7---|-3-5-3-5--|
      
2) En el estribillo:                 

  E
G------------------|
D------------------|
A--*---*---*---*---|
E-0-0-4-4-7-7-4-4--|



  B
G--------------------|
D--------*------*----|
A--*----6-6-9-9-6-6--|
E-7-7----------------|



  A
G--------------------|
D--------*--*--*-----|
A--*---4-4-7-7-4-4---|
E-5-5----------------|


3) Final:                                                



G---------------------------*--*--*------------|
D----------------------*--6-6-7-7-8-8-9--------|
A-----6---------4-----7-7----------------------|
E-7-7---7-6-5-5---5-5-------------------3-0----|

Espero que les serva de algo proximamente el bajo 
de Se viene de  Bersuit Vergarabat

Fuente original ATAME [www.atame.org]
Colaborador original: Andres Lemos [eltwistdelpibe@hotmail.com]

Fuente: tusacordes.com