a b c d e f g h i j k l m n o p q r s t u v w x y z 0-9

El Revelde

La Renga

			
Canto:
          E                  B
G|------------------|------------------|
D|-2-2-2-2--2-2-2-2-|------------------|
A|------------------|-2-2-2-2--2-2-2-2-|
E|------------------|------------------|
                  x2                  x2

          A                  E
G|------------------|------------------|
D|------------------|-2-2-2-2--2-2-2-2-|
A|-0-0-0-0--0-0-0-0-|------------------|
E|------------------|------------------|
                  x2                  x2

Estribillo:

          A                  E
G|------------------|------------------|
D|------------------|-2-2-2-2--2-2-2-2-|
A|-0-0-0-0--0-0-0-0-|------------------|
E|------------------|------------------|
                  x2                  x2

          B                  A                  E
G|------------------|------------------|------------------|
D|------------------|------------------|-2-2-2-2--2-2-2-2-|
A|-2-2-2-2--2-2-2-2-|-0-0-0-0--0-0-0-0-|------------------|
E|------------------|------------------|------------------|

Final:

          A                  E
G|------------------|------------------|
D|------------------|-2-2-2-2--2-2-2-2-|
A|-0-0-0-0--0-0-0-0-|------------------|
E|------------------|------------------|
                  x2                  x2

       B          A                E
G|-----------|---------|-----1-1-2-2-3-3-4------|
D|-----------|---------|-2-2----------------3-2-|
A|-2--2--2-1-|-0--0--0-|------------------------|
E|-----------|---------|------------------------|
----------------------------------------------------
Si tenés alguna duda y/o pregunta, escribime a 
ejpolo@hotmail.com

Fuente original ATAME [www.atame.org]
Colaborador original: Emiliano Polo [ejpolo@hotmail.com]

Fuente: tusacordes.com