a b c d e f g h i j k l m n o p q r s t u v w x y z 0-9

El Rastro De La Conciencia

La Renga

			
Riff1

e---------------------------------------------------------------------------
B--------------------------------------------------------------------------
G--------------------------------------------------------------------------
D---2------------2-----------2------------2-3--3-3-3-2-0--------------
A---0-0-0-3-5- 0-0-0-3-5-0-0-0-3-0---------------------3-5---------
E--------------------------------------------------------------------------


Intro: Riff1

Riff1
Ves donde estoy, donde voy
Lo que busco es el seguro estrecho
Riff1
De lo que va del dolor
A la luz que me deslumbra, nena
Riff1
De lo que más pesa hoy
Y no pesará mañana
         F5                                      D5
Ya verás que las cosas tienen mucho por decir
F5			    D5
Y que el futuro no es incierto, para darme la
F5			       D5
 Espalda que no tiene soluciones de verdades
F5
     Ni la salvedad de los hombres
	     D5
Que no quieren soportarlo ya.

Riff1
En donde estoy lo que vas 
a pedirme son mis ganas, nena
Riff1
Pero no se donde voy
Lo peor será distante y frío
Riff1
En el dolor yo no se donde viajan las estrellas
Riff1
Sobre que piel debo ir a buscar las estaciones

F5	              D5
A caso tienen olvidado ser el cielo
F5			      D5
Lo que no tienen son verdades para mí
F5			        D5
Y puedo ver lo que hay detrás de las ciudades
F5 		        D5
Todo ese frío que arraza ha de venir

Solo sobre: 

Riff2:
e------------------------------------------------------------------------------
B-----------------------------------------------------------------------------
G----------------------------------------------------------------------------
D----------------------------------------------------------------------------  X2
A---5-5-6-6-7-0---5-5-6-6-7-0---5-5-6-6-7-0-------------------------
E-----------------------------------------------------3-3-4-4-5------------


Riff3:
e-----------------------------------------------------------------------------
B-----------------------------------------------------------------------------
G-----------------------------------------------------------------------------
D?5-5-6-6-7-0--- 5-5-6-6-7-0---5-5-6-6-7-0-------------------------  X2
A------------------------------------------------------3---5----------------
E-----------------------------------------------------------------------------


Riff2
Riff1


Riff1
Imbécil puedo llegar, por acá no hay estaciones nena
Riff1
Más el camino está empedrado de burladas cenicientas
Riff1
Lo que hay detrás del dolor
No lo quieras volver a ver
F5			      D5
Hay que volver si no se puede estar distante
F5			        D5
Que malas sombras hay en el camino aquel
F5		            D5
Que soluciones han traído estas verdades
F5                 D5
Nada puedo ver

Riff2 X2
Riff3 X2
Em
Final:
e-------------------------
B------------------------
G-----------------------
D?2----------2-------
A---2----------2-------
E----0-3?5---0-------


Nota: Para tocar los Riffs hay que escuchar bien el tema
          El F5 es en el octavo traste

AGUANTE TIGRE Y LA RENGA

Fuente original ATAME [www.atame.org]
Colaborador original: Gustavo Invernoz [gustavo_gunner@hotmail.com]

Fuente: tusacordes.com