a b c d e f g h i j k l m n o p q r s t u v w x y z 0-9

El Ojo Del Huracan

La Renga

			
intro                    Pre verso
1|---------------|      1|--------------
2|---------99----|      2|-----------9--
3|--555------0---|  x3  3|---------2----
4|-----5-7-------|      4|-2-5-3-5------

Verso
 cada cual....
1|----------------------------------
2|------------------------5---------
3|-5-5-5-5--2-2-2-2---------5-5-----  x2
4|------------------5-3-3-------5---

 ....rodar los caminos...
1|--------------------------------------------
2|--------------------------------------------
3|--------------------------------------------
4|--5---5---5---5--5---5---5---5---7--7--7--0-

1|--------------------------------------------
2|--------------------------------7-----------
3|--------------------------------------------
4|--5---5---5--5--5-5--5---5---5--------------

Estribillo va igual que la intro
por mas que quieras
dificil es llegar
no existe ciencia
mucho puede pesar...
PRE VERSO

Verso
Estribillo
Pre verso

Solo(verso como base y Tocar Re(3|-555555-),
antes de volver al verso).

verso
  pueda ser....
1|--------------------------------------------
2|--------------------------------------------
3|-----------2-2-2-2----------0-0-0-0----------
4|--2--2--2----------3-3-3-3--------------

  cada cual pisa...
1|----------------------------------------
2|------------------------------5---------
3|--5--5--5--5--------------------5--5-5--
4|------------3-2--2-2-5-3--3-3-----------

  Estribillocomo intro hasta el final que es en Re

Fuente original ATAME [www.atame.org]
Colaborador original: Bruno Sabetta [bruno_acdc@hotmail.com]

Fuente: tusacordes.com