a b c d e f g h i j k l m n o p q r s t u v w x y z 0-9

El Ojo Del Huracan

La Renga

			
Esta bastante bien sacado, cualquier cosa, lo tengo
en guitar pro, despues pongo el solo de Cuando estes aca.
Mientras lo tocan vallan escuchandolo asi es mas facil.

Slide: s
Bend estirar: ^ ˝ semitono
Bend estirar: ^^ 1 semitono
PreBend: ^=
Vibrato: ~

E|-------------------------------------------3---------------
B|-----------------------------------3~--6---6-5^-5^-5^=--3--
G|-4-2---2-4-2---2-4-2---2-4-2-------------------------------
D|------2--------2--------2----------------------------------
A|-----------------------------------------------------------
E|-----------------------------------------------------------

E|------------------------------------------------------3-5s7~-7-5--------5--
B|--------0-3--------------------------5^=---3-3~-5--------------7-5-7-------
G|--4-2-------4-2-----------4-2----------------------------------------------
D|-------------------4~-4-2------4-2-----------------------------------------
A|---------------------------------------------------------------------------
E|---------------------------------------------------------------------------

E|-----------------------------10-12^^--12^^-12^=-10-----12^^-13^^-12^^--
B|--5?5^=-3-5--3~----12-------------------------------12-----------------
G|-----------------------------------------------------------------------
D|-----------------------------------------------------------------------
A|-----------------------------------------------------------------------
E|-----------------------------------------------------------------------

E|--12-10-12^^--12^^--12^^--10--10------------7--10--10--9--9--9--7--7--7--
B|-------------------------------------------12--12~-----------------------
G|-------------------------------------------------------------------------
D|-------------------------------------------------------------------------
A|-------------------------------------------------------------------------
E|-------------------------------------------------------------------------

E|---------------------------------------------------------------------------------
B|-10--10--7--7--8--7------8-8^^----------------------7-7-7-7-8-8-8-8-10-10-10-10--
G|-------------------------9-----------9^^-9^=--7-9-7------------------------------
D|---------------------------------------------------------------------------------
A|---------------------------------------------------------------------------------
E|---------------------------------------------------------------------------------

E|-7-7-7-7-9-9-9-9-10-10-10-10s12--||
B|---------------------------------||
G|---------------------------------||
D|---------------------------------||
A|---------------------------------||
E|---------------------------------||

Fuente original ATAME [www.atame.org]
Colaborador original: ale de la fuente [ale182_666@hotmail.com]

Fuente: tusacordes.com