a b c d e f g h i j k l m n o p q r s t u v w x y z 0-9

El Mambo De La Botella

La Renga

			
INTRO;
GUITARRA S.G GIBSON

e|--------------------------------------------------------------/
B|-------------------------------------------------------------/
G|--------5//----------5//-----------5//----------------/
D|--------4//----------4//-----------4//---------------/
A|--4--------------4---------------4---------------5--2~~---/
E|--2--------------2---------------2-----------------------/


Verso 1:

e|-------------------------------------------------------------/
B|------------------------------------------------------------/
G|---------------5//------------------------5//----------/
D|---------------4//------------------------4//---------/
A|------4-------------------------4------------------------/
E|------2-------------------------2-----------------------/
    Mi ojo parpadea     en la pantalla del video
e|-----------------------------------------------------------------/
B|----------------------------------------------------------------/
G|---------------5//----------------------------5//----------/
D|---------------4//----------------------------4//---------/
A|------4-------------------------4----------------------------/
E|------2-------------------------2---------------------------/
  Hay tanta gente acá  que   no   se  puede ni hablar
el ruido va infestando las neuronas y en el vaso
se moja mi nariz con la espuma de cerveza
Hay tanta cara extraña, sera que veo doble
no tengo intensiones de ponerme a descifrar
cuando siento que alguien me toca la espalda
y al darme vuelta, veo tu vieja figura
en mi album...

Estribillo:

 D     Bm    F5   ////// D     Bm         F5
yyy    me pregunto,       yyyy    me pregunto
E5                         D
A donde? donde me lleva la vida?
E5                       D
carcelera del destino y la sorpresa
E5                         D
como me trajo tu cuerpo pudo, traerme la muerte
     E5    E5/ F#5 D
y entonces,         ya no habia mas que preguntar

Verso 2 igual al Verso 1
Sobre intro
Salgo a la calle, a la noche, a la platea
vos te pegas a mi, hoy soy tu salvacion
giro como un trompo sobre la barranca
y me voy bailando el mambo de la botella
de piel vidriosa, diosa tan bella
que en su interior guarda la locura de un exceso
el viento es la musica, que me mueve
pero el trompo se detiene...
en una alcantarilla

Estribillo:

D     Bm    F5   ////// D     Bm         F5
yyy    me pregunto,       yyyy    me pregunto
E5                         D
A donde? donde me lleva la vida?
E5                       D
carcelera del destino y la sorpresa
E5                         D
como me trajo tu cuerpo pudo, traerme la muerte
     E5    E5/ F#5 D
y entonces,         ya no habia mas que preguntar

Solo

PUENTE

e|--------------------------------------------------------------/
B|-------------------------------------------------------------/
G|--------5//----------5//-----------5//----------------/
D|--------4//----------4//-----------4//---------------/  + BAJO
A|--4--------------4---------------4-------------4----------/
E|--2--------------2---------------2-------------2---------/

e|--------------------------------------------------------------/
B|-------------------------------------------------------------/
G|--------5//----------5//-----------5//----------------/
D|--------4//----------4//-----------4//---------------/  + "MAMBO OH"
A|--4--------------4---------------4-------------4----------/
E|--2--------------2---------------2-------------2---------/

e|--------------------------------------------------------------/
B|-------------------------------------------------------------/
G|--------5//----------5//-----------5//----------------/
D|--------4//----------4//-----------4//---------------/  + PLATILLOS
A|--4--------------4---------------4-------------4----------/
E|--2--------------2---------------2-------------2---------/

[F5]

FIN.

Fuente original ATAME [www.atame.org]
Colaborador original: Mati [matiasp_motoralmaisangre@hotmail.com]

Fuente: tusacordes.com