a b c d e f g h i j k l m n o p q r s t u v w x y z 0-9

El Juicio Del Ganzo

La Renga

			
INTRO;
GUITARRA S.G GIBSON
           SOL                       RE                        SOL
e|--7--|-7---------8p7-----|--5--|-------------------|--7--|-7---------8p7-----|----------------|
B|--8--|---8-----8-----8---|--7--|-------------------|--8--|---8-----8-----8---|----------------|
G|--7--|-----7-9---------7-|--7--|-------------------|--7--|-----7-9---------7-|-9b-9-7--7-9-7--|
D|-----|-------------------|--7--|-----7-7p9-7--9-7--|-----|-------------------|----------------|
A|-----|-------------------|-----|-7-9---------------|-----|-------------------|----------------|
E|-----|-------------------|-----|-------------------|-----|-------------------|----------------|
        DO                           SOL                     DO                 RE           SOL
e|-12--|-12-12--15-12-13-12------|--7-7-7-7-7-7-7-7-7---|--3-3-3-3-3-3-3--|--555555-55-55--|-7--|
B|-13--|--------------------13---|--8-8-8-8-8-8-8-8-8---|--5-5-5-5-5-5-5--|--777777-77-77--|-8--|
G|-12--|-------------------------|--7-7-7-7-7-7-7-7-7-7-|--5-5-5-5-5-5-5--|--777777-77-77--|-7--|
D|-----|-------------------------|----------------------|--5-5-5-5-5-5-5--|--777777-77-77--|----|
A|-----|-------------------------|----------------------|-----------------|----------------|----|
E|-----|-------------------------|----------------------|-----------------|----------------|----|

VERSO 1:
   SOL    RE       RIFF1           SOL   RE        RIFF2        DO   SOL      DO             RE           RIFF1
e|--7--|--5--|-------------------|--7--|--5--|----------------|-12-|--7--|--33333333--|--555555-55-55--|---------|
B|--8--|--7--|-------------------|--8--|--7--|----------------|-13-|--8--|--55555555--|--777777-77-77--|---------|
G|--7--|--7--|-------------------|--7--|--7--|-9b-9-7--7-9-7--|-12-|--7--|--55555555--|--777777-77-77--|--RIFF1--|
D|-----|--7--|-----7-7p9-7--9-7--|-----|--7--|----------------|----|-----|--55555555--|--777777-77-77--|---------|
A|-----|-----|-7-9---------------|-----|-----|----------------|----|-----|------------|----------------|---------|
E|-----|-----|-------------------|-----|-----|----------------|----|-----|------------|----------------|---------|

SOL                   RE      RIFF1
De tanto andar por la cornisa
SOL                  RE    RIFF2
tal vez un dia pueda caer.
DO                        SOL
De tanto confiarme de mi suerte y mis conquistas,
                   DO  RIFF1
en la percha de un bar
         RE        RIFF1
 termine despues.

VERSO 2igual

De no aceptar el oficio de santo,
y por reirme de tu tonta cancion de amor
de no transar ni con el cielo ni el infierno
tal vez confisquen mi corazon

ESTRIBILLO
   LA5   DO5   RE5        RIFF3
e|--x--|--x--|--x--|-----------------------|
B|--x--|--x--|--x--|-----------------------|
G|--2--|--x--|--x--|-----------------------|
D|--2--|--5--|--7--|-----------------------| x5
A|--0--|--3--|--5--|--3-2-0--3-2-0--3p2p0--|
E|-----|--x--|--x--|-----------------------|

A5               C5         D5    RIFF3
Y quien compartira mi desconsuelo
 A5           C5            D5    RIFF3
y mi destierro de civilizacion.
 A5           C5             D5                 RIFF3
Quiza muera odiandote y entendiendote a la vez,
    A5       C5        D5
que de tanto que pude haber hecho por vos,
  C5                        D5
entregues mi alma al mejor postor.

VERSO 3 igual al VERSO 1 y 2

De tanto jugar a la cigarra
tal vez me sorprenda el invierno
de tanto fiarme de tener alguien siempre a mano
sin pan y sin torta la fiesta termine despues.

VERSO 3 igual

Y uno recoge lo que siembra, dicen
y es peligroso el barco sin timón
pero quien ponga las manos en este juicio
nunca sabra que satisfecho el ganso murió.

ESTRIBILLO

Y quien compartira mi desconsuelo
y mi destierro de civilizacion.
Quiza muera odiandote y entendiendote a la vez,
que de tanto que pude haber hecho por vos,
entregues mi alma al mejor postor.

SOLO DE VIOLA

SOLO DE SAXO

Fuente original ATAME [www.atame.org]
Colaborador original: Mati [matiasp_motoralmaisangre@hotmail.com]

Fuente: tusacordes.com