a b c d e f g h i j k l m n o p q r s t u v w x y z 0-9

El Juicio Del Ganzo

La Renga

			
-------------------------------------
Notaciones
-------------------------------------
7^9 = Ligado

7^10 = Estira la cuerda hasta hacerla sonar 
         como la nota escrita en el parentesis	

/17 = desliza el dedo hasta llegar a la nota
------------------------------------------------

Intro:

1----7--7---------8-7----5----------------------
2----8---8------8----8---7----------------------
3----7----7-9-9-------7--7----------------------
4------------------------7-------7-7-9--7-9-7---
5---------------------------7-9-----------------
6-----------------------------------------------

1----7--7---------8-7----5----------------------
2----8---8------8----8---7----------------------
3----7----7-9-9-------7--7----9^11-9-7-7-9-7--
4------------------------7----------------------
5-----------------------------------------------
6-----------------------------------------------

1----12--15-13-12-13-12-------------------------
2----13----------------13-----------------------
3----12------------------12---------------------
4-----------------------------------------------
5-----------------------------------------------
6-----------------------------------------------

1----7--7------12--15-13-12-13-12--------5-5-5-5-
2----8--8------13----------------13------7-7-7-7
3----7--7------12------------------12----7-7-7-7
4----------------------------------------7-7-7-7
5-----------------------------------------------
6-----------------------------------------------
		
Repite el Riff mientras canta

 G                     D  
De tanto andar por la cornisa  
 G                   D  
tal vez un dia pueda caer.  
C                          G  
De tanto confiarme de mi suerte y mis conquistas,  
                     C  
en la percha de un bar  
         D  
 termine despues.  
                           
 G                          D  
De no aceptar el oficio de santo,  
 G                 D  
y por reirme de tu tonta cancion de amor  
 C                       G  
de no transar ni con el cielo ni el infierno  
 C                        D  
tal vez confisquen mi corazon  
 A5               C5         D5    C B A C B A C B A
Y quien compartira mi desconsuelo  
 A5           C5            D5     C B A C B A C B A      
y mi destierro de civilizacion.  
 A5           C5             D5                                         
Quiza muera odiandote y entendiendote a la vez,  
    A5       C5        D5  
que de tanto que pude haber hecho por vos,  
  C5                        D5  
entregues mi alma al mejor postor.



En la segunda parte repite la misma sequencia de acordes

Punteo

1------------------------------------------------------
2------8-10^12--10^12--7-10^12-10^12-10^12---
3----/9------------------------------------------------
4------------------------------------------------------
5------------------------------------------------------
6------------------------------------------------------

1-----------------------------------15--17^19-17^19-
2-------------------------------/17---------------------
3-----10^12--8-7-8-7----------------------------------
4-----------------------9--7----------------------------
5-------------------------------------------------------
6-------------------------------------------------------

1---15-14-15-14-------------14-17-15-14-17-15-14-17-15--
2---------------17--15--15------------------------------
3-------------------------------------------------------
4-------------------------------------------------------
5-------------------------------------------------------
6-------------------------------------------------------

1---14-17-15-14-17-15-14-17-15-14-15--------------------
2-------------------------------------12-13--15-13-12---
3-------------------------------------------------------
4-------------------------------------------------------
5-------------------------------------------------------
6-------------------------------------------------------

1-------------------------------------------------------
2--10--12---10---8--10--8--7--7-7--8---/10-12-12--10-10-
3-------------------------------------------------------
4-------------------------------------------------------
5-------------------------------------------------------
6-------------------------------------------------------

1----------------------------7--------------------------
2--10--8--8-8-8--7-7-7-------8--------------------------
3----------------------9--7--7--------------------------
4-------------------------------------------------------
5-------------------------------------------------------
6-------------------------------------------------------

-------------------------------------------------------

Aguante Nada Nuestro Rock n Rollllllllll

Fuente original ATAME [www.atame.org]
Colaborador original: Jorge Omar Perea [squier@fullzero.com.ar]

Fuente: tusacordes.com