a b c d e f g h i j k l m n o p q r s t u v w x y z 0-9

El Hombre De La Estrella

La Renga

			
INTRO Y PARTES ENTRE LOS VERSOS

|------------------5------|
|-----5---765---5--5---7--|
|---6---6-----6--------6--|       RIFF 1
|-------------------------| x1
|-------------------------|
|-------------------------| el 765 es ligado

|-------------------------------------------|
|-------------------------------------------|
|-------------------------------------2-4---|
|---2-4-4--------4-4------ -4-4-------2-4---| x4
|---2-4-4------0-4-4------0-4-4-------0-2---|
|---0-2-2--X-X-0-2-2--X-X-0-2-2--X-X--------|


Estructura:

INTRO

F#5
Son tan distintos el sonido y el viento
         E5
y sin embargo en algo se parecen 
B5
ni el mejor ojo los puede ver 
      F#5
pero estan porque se siente. 



De esa textura tu alma pario 
        E5
lo que era todo tu aliento 
   E5
la rabia nunca murio 
         F#5
cuando mataron al perro 


A5            E5                B5
Dame de esa espuma, contagia valor 
A5            E5           B5
que no haya tumba, ni nada que lo calla 
A5               E5           B5
se oye como el viento y no se ve 


A5         E5            F#5
se mete adentro y da batalla. 

INTRO

F#5
Un salvaje que no para 
    E5
quiere convertirse en mi 
  B5
no me quiere fiel ni falso 
       F#5
solo bestia para vivir 

De esa bravura tu sueño pario 
        E5
lo que aun sostiene mi aliento 
    B5
la rabia nunca murio 
          F#5
cuando mataron al perro 

A5            E5                B5
Dame de esa espuma, contagia valor 
A5            E5           B5
que no haya tumba, ni nada que lo calla 
A5               E5           B5
se oye como el viento y no se ve 
A5         E5            F#5
se mete adentro y da batalla. 

RIFF 1

SOLO DE TROMPETA 1:53/2:14: INTRO

SOLO BATERÍA 2:14/2:17

F#5
Como guia el cielo regalo 
   E5
una estrella para tu frente 
B5                                F#5
para que sin perder la ternura jamas 

aprendieras a endurecerte.

A5            E5                B5
Dame de esa espuma, contagia valor 
A5            E5           B5
que no haya tumba, ni nada que lo calla 
A5               E5           B5
se oye como el viento y no se ve 
A5         E5            F#5
se mete adentro y da batalla. 


SOLO

FINAL	

Fuente: tusacordes.com