a b c d e f g h i j k l m n o p q r s t u v w x y z 0-9

El Hombre De La Estrella

La Renga

			
INTRO 0:00/0:23

|---------2-0-------5-2---|
|---2-4-2-----4-2-0-------|
|-------------------------|
|-------------------------| x1
|-------------------------|
|-------------------------|

|---------------------------------|
|---------------------------------|
|---------------------------------|
|---2-4-4--2-4-4--2-4-4-0---7-9---| x4
|---2-4-4--2-4-4--2-4-4-0---7-9---|
|---0-2-2--0-2-2--0-2-2-0---5-7---|
___________________________________________

FINAL: 3:15/3:19

|----------2-0---------5-2-------------|
|---2-4-2-------4-2-0------------------|
|--------------------------------------|
|----------------------------2---4-4---|
|----------------------------2---4-4---|
|----------------------------0---2-2---|
____________________________________________

Riff 1
|---------2-0-------5-2---|
|---2-4-2-----4-2-0-------|
|-------------------------|
|-------------------------|
|-------------------------|
|-------------------------|
_____________________________________________

Estructura:

INTRO

F#5
Son tan distintos el sonido y el viento
         Em
y sin embargo en algo se parecen 
B5
ni el mejor ojo los puede ver 
      F#5
pero estan porque se siente. 



De esa textura tu alma pario 
        Em
lo que era todo tu aliento 
   Em
la rabia nunca murio 
         F#5
cuando mataron al perro 


A5            Em                B5
Dame de esa espuma, contagia valor 
A5            Em           B5
que no haya tumba, ni nada que lo calla 
A5               Em           B5
se oye como el viento y no se ve 


A5         Em            F#5
se mete adentro y da batalla. 

INTRO

F#5
Un salvaje que no para 
    Em
quiere convertirse en mi 
  B5
no me quiere fiel ni falso 
       F#5
solo bestia para vivir 

De esa bravura tu sueño pario 
        Em
lo que aun sostiene mi aliento 
    B5
la rabia nunca murio 
          F#5
cuando mataron al perro 

A5            Em                B5
Dame de esa espuma, contagia valor 
A5            Em           B5
que no haya tumba, ni nada que lo calla 
A5               Em           B5
se oye como el viento y no se ve 
A5         Em            F#5
se mete adentro y da batalla. 

Riff 1

SOLO DE TROMPETA 1:53/2:14: INTRO

SOLO BATERÍA 2:14/2:17

F#5
Como guia el cielo regalo 
   Em
una estrella para tu frente 
B5                                F#5
para que sin perder la ternura jamas 

aprendieras a endurecerte.

A5            Em                B5
Dame de esa espuma, contagia valor 
A5            Em           B5
que no haya tumba, ni nada que lo calla 
A5               Em           B5
se oye como el viento y no se ve 
A5         Em            F#5
se mete adentro y da batalla. 


SOLO

FINAL	
______________________________________________________

EL SOLO NO LO PONGO PORQUE YA ESTÁ EN LA PÁGINA....

CHAU

Fuente original ATAME [www.atame.org]
Colaborador original: matias perez [matiaselrebelde@hotmail.com]

Fuente: tusacordes.com