a b c d e f g h i j k l m n o p q r s t u v w x y z 0-9

El Hombre De La Estrella

La Renga

			
Vibrato>>>                 ~
   Estiradas>>                b
   Estirar y bajar>>>         ba
   Slide>>>                   s                
   Sonidos armónicos>>>       <>
   Ligados ascendentes>       h
   Ligados descendentes>      p
   Se mantiene la estirada>   /

     
   Intro y Riff principal
E  --------2-----------5-2-------
B  --2h5p2---5p4p3p2p0-----------
G  ------------------------------
D  ------------------------------
A  ------------------------------
E  ------------------------------

   
   SOLO DE GUITARRA
E  ------------------------------------------------------------------14-12b-12b-12baP9-9-9------
B  -----10---------------10------------------------------------14h17----------------------------
G  --9/-------*-------9/------------9----11-11-11s14-14s17-17-----------------------------------
D  -------------------------7p4--9/---11--------------------------------------------------------
A  ---------------------------------------------------------------------------------------------
E  ---------------------------------------------------------------------------------------------

E  --12-12-12-12-12-12h9-9-9----------------19-19-19h17----19-19-19h17----19-19-19h17-----------
B  -----------------------------------------------------19-------------19-------------19--------
G  ----------------------------19/-19-19--------------------------------------------------------
D  --------------------------------*------------------------------------------------------------
A  ---------------------------------------------------------------------------------------------
E  ---------------------------------------------------------------------------------------------

E  --17h19p17-19ba-19b--19h17-19-19b--12s14h17p14-----------------------------------------------
B  -----------------------------------------------17-14h17p14-----------------------------------
G  -----------------------------------------------------------16-14h16p14-----------------------
D  ------------------------------------------------------------------------16p14-14~~~----------
A  ---------------------------------------------------------------------------------------------
E  ---------------------------------------------------------------------------------------------

   El tema termina con el riff principal. En el primer * les marco que cuando estira en el 9 y
   pulsa en el 10 de la segunda a la vez, sigue estirando hacia arriba y abajoescuchenlo que 
   les va a salir y en el segundo * les marco que estira en el 19 y toca las otras dos notas
   con la estirada mantenida. Bueno eso es todo, esta muy bien sacada la intro y tambien el solo.
   Suerte loco!

Fuente original ATAME [www.atame.org]
Colaborador original: Federico [el_revbelde@hotmail.com]

Fuente: tusacordes.com