a b c d e f g h i j k l m n o p q r s t u v w x y z 0-9

El Hombre De La Estrella

La Renga

			
INTRO:
   E  F#    E    F#    E    F#   A B
|---------|----------|---------------|
|---------|----------|---------------|
|---------|----------|------------0-2|
|--0--2-2-|-0-0--2-2-|-0-0--2-2------| 


son tan...       ni el mejor ojo...
|--------------------------------------------|
|--------------------------------------------|
|----------------2-2-2-2-2-2-2---------------|
|--2*-------0*-------------------2-2-2-2-2-2-|
*QUEDAN SONANDO

despues sigue:
de esa bravura...
|---------------------------------------|
|---------------------------------------|
|---------------------------------------|
|-2-2-2-2-2-2-2-2-2-2-0-0-0-0-0-0-0-0-0-|

la rabia nunca...
|-----------------------------------------|
|-----------------------------------------|
|-2-2-2-2-2-2-2-2-2-2---------------------|
|---------------------2-2-2-2-2-2-2-2-2-2-|

CORO:
dame de esa espuma...
|------------------------------------------|
|------------------------------------------|
|---------------------------2-2-2-2-2------|
|-5-5-5-5-5-5-0-0-0-0-0-0-0----------------|
TODO LO MISMO

REPITE INTRO,CUERPO Y CORO

SOLO DE GUITARRA:
     F#5          E5         B5        B5
|----------|------------|-----4----|-----4--|
|-----4----|------------|---4---4--|---4--4-|
|---4---4--|------2-----|-2--------|-2------|
|-2--------|--0-4---4---|----------|--------|


ES MUY FACIL,LO UNICO QUE VARIA ES EL SOLO

www.geocities.com/bailando_en_1_pata

Fuente original ATAME [www.atame.org]
Colaborador original: Lucas Massarini [redhotlucas@hotmail.com]

Fuente: tusacordes.com