a b c d e f g h i j k l m n o p q r s t u v w x y z 0-9

El Final Es En Donde Parti

La Renga

Em
G
A
B
C
D
			
Em
dejame ver que hay
G
para saborear esta vuelta
A                 A#             A   
la carta no esta siempre a tu alcanse
G             Em
en los matutinos

loco de pensar
que se dispute el poder y la gloria
y con el frio de un reino
las almas conjelar.

cuanta verdad,cuanta mentira
y cuantas palabras
y todo ese motorpara desvastar tu inconsiente
escribillo:
[bajos: B G GB] C
Y EN QUE LUGAR
                         G
habra consuelo para mi locura
                        D
esta ironia con que se cura
A#                  A     G   Em
si el final es en donde parti
y a quien llamar
a quien golpearle la puerta tan tarde
con quien hablar cuando no hay nadie
si esta noche no puedo dormir
dejame ver que hay
para saborear esta buelta
la verdad,la mentira 
                    riff2
y mueca de tu ingrnuidad

cuantas palabras disputan
el poder y la gloria
y cuantasvidas se pierden 
en el frio de un reino mortal

loco de pensar 
queriendo entrar en razon y el corazon
tiene razones que la propia
razon nunca entendera

y a donde voy
siempre voy a buscar lo que es mio
aunque el planeta termine en un circulo
y el final es en donde parti

no llores mas
dame la mano contame tu suerte
de esta manera quisasno sea la muerte
la que nos logre apagar el dolor

y en que lugar
habra consuelo para mi locura
esta ironiacon que se cura
si el final es en donde parti





riff 1
1---------------------------------------------------
2---------------------------------------------------
3---------------------------------------------------
4-------7-7-7-7-8-8-8-7-5---------------------------
5-------7-7-7-7-8-8-8-7-5-2-------------------------
6-3-0-3-5-5-5-5-6-6-6-5-3-0-------------------------




riff 2
1---------------
2---------------
3---------------
4---------------
5-2-1-0-1-2-----
6---------------

Fuente: Tusacordes