a b c d e f g h i j k l m n o p q r s t u v w x y z 0-9

El Final Es En Donde Parti

La Renga

			
Riff 1
|-----------------------------------------------|E
|-----------------------------------------------|B
|-----------------------------------------------|G
|----------7-7-7-7-8-8-8-7-5--------------------|D
|----------7-7-7-7-8-8-8-7-5-2------------------|A
|----3-0-3-5-5-5-5-6-6-6-5-3-0------------------|E

Em                   G5                          A5
Dejame ver que hay para saborear esta vuelta la carta no esta 
 A#5            A5      G5       Em   Riff 2
siempre a tu alcance en los matutinos.

|-----------|E
|-----------|B
|-----------|G
|-----------|D
|--2-1-0-1-2|A
|-----------|E 

Con la misma basa de la intro :
Loco de pensar que se disputen el poder y la gloria y con el frio de un reiono las almas congelar.
Cuanta verdad cuanta mentiras y cuantas palabras y todo este motor para desvatar tu inconciente. Riff 3

|-------------|E
|-------------|B
|-------------|G
|----5-4------|D
|--2----------|A
|-------------|E
Estribillo:
           C5                           G5
Y en que lugar habra consuelo para mi locura esta ironia con 
        D5           A#5       A5     G5  Em   Riff 1 x2
que se cura si el final es en donde parti.     Riff 3

Misma base del estribillo:
Y a quien llamar a quien golpearle la puerta tan tarde con quien hablar cuando no hay nadie si esta noche no puedo dormir.

Misma base de la intro:
Dejame ver que hay para saborear esta vuelta la verdad la mentira y mueca de tu ingenuidad. Riff 2
Cuantas palabras se disputan el poder y la gloria y cuantas almas se pierden en el frio de un reino mortal.
Loco de pensar queriendo entrar en razon y el corazon tiene razones que la propia razon nunca entendera. Riff 3

Misma base del estribillo:
Y a donde voy siempre voy a buscar lo que es mio aunque el planeta termine en un circulo y el final es en donde parti.
No llores mas dame la mano contame tu suerte de esta manera quizas no sea la muerte la que nos logre apagar el dolor.
Y en que lugar habra consuelo para mi locura esta ironia con que se cura si el final es en donde parti.
                                            La Renga

Fuente: Tusacordes