a b c d e f g h i j k l m n o p q r s t u v w x y z 0-9

El Final Es En Donde Parti

La Renga

			
Vibrato>>>                 ~
   Estiradas>>                b
   Estirar y bajar>>>         ba
   Slide>>>                   s                
   Sonidos armónicos>>>       <>
   Ligados ascendentes>       h
   Ligados descendentes>      p
   Se mantiene la estirada>   /

    
E  ---------5-5h6p5h6p5h6p5-6h7-5-------------------------------------10s12-12-12-15-15p12-12---
B  --8-5-8--5---------------------8-5-----12----12--------------------10s12-12-12-15-15p12-12--- 
G  --7-4-7--------------------------------12----12-----12----12-14~~----------------------------
D  ------------------------------------14----14----14-----14------------------------------------
A  ---------------------------------------------------------------------------------------------
E  ---------------------------------------------------------------------------------------------


E  --10p7-10p7-7-7-10p7-10p7-10b---10b-10b-10b-10ba--------------------12-15-17baP15----15-17ba-
B  -------------------------------------------------8h10-10b---9s12-15---------------17---------
G  ---------------------------------------------------------------------------------------------
D  ---------------------------------------------------------------------------------------------
A  ---------------------------------------------------------------------------------------------
E  ---------------------------------------------------------------------------------------------

E  -----------15-17-17baP15--------------12-12-15-12-14-12-12--15-15-15-15-15-15-15-14-12-------
B  --12s15-17---------------17-17b--17---12-12--------------------------------------------15-12-
G  ---------------------------------------------------------------------------------------------
D  ---------------------------------------------------------------------------------------------
A  ---------------------------------------------------------------------------------------------
E  ---------------------------------------------------------------------------------------------
                                                                            <>
E  ---------------------------------------------------------------------------------------------
B  --15b-15b-15b-15ba-12-15-12---------12-13-15p13p12----------12------------12-----------------
G  ----------------------------14---14-----------------14ba-14----14p12h14------14---14baP12----
D  ------------------------------------------------------------------------------------------14-
A  ---------------------------------------------------------------------------------------------
E  ---------------------------------------------------------------------------------------------

Fuente original ATAME [www.atame.org]
Colaborador original: Federico [el_revbelde@hotmail.com]

Fuente: tusacordes.com