a b c d e f g h i j k l m n o p q r s t u v w x y z 0-9

El Final Es En Donde Parti

La Renga

			
Esto es lo que pude sacar del punteo del Final.
Es sobre una base de: dos intro y dos estribillo.
Acá está la parte de las dos intro y el segundo
estribillo, el primero no lo pude sacar, así que si
alguien lo tiene que me lo pase. No está perfectamente
igual pero suena... espero que les sirva.
Sugerencias y aportes: lulyrios@arnet.com.ar
¡¡¡AGUANTE LA RENGA LOCO!!!

INTRO I
e-----------------------------------------------------------------------
B-----------------------------------------------------------------------
G---12--9--12/14--14-14h15p14--15b16--15--15--14--12--95--127--127---
D----------------------------------------------------------127--127---
A-----------------------------------------------------------------------
E-----------------------------------------------------------------------

El 14h15p14 lo hace varias veces, escuchá el tema para
guiarte

INTRO II
e----------------------------------------
B----------------------------------------
G---9--12--9--12/14--14--149--159--9---
D------------------------149--159--9---
A----------------------------------------
E----------------------------------------

ESTRIBILLO II
e---12--12--15--12--14--12--12--12--15-15-15-15-15b16--14--
B----------------------------------------------------------
G----------------------------------------------------------
D----------------------------------------------------------
A----------------------------------------------------------
E----------------------------------------------------------

e-----------------------------------------------------
B--17--15------17b18-17b18-17b18-17b18--15h17p15------
G----------16-------------------------------------17--
D-----------------------------------------------------
A-----------------------------------------------------
E-----------------------------------------------------

e------------------------------------------------------
B------------------15--17r15------17--15---------------
G--169--16h17p16-------------17----------17--169-----
D------------------------------------------------------
A------------------------------------------------------
E------------------------------------------------------

e----------------------|
B--12/17--15-----------|
G-------------17--14---|
D----------------------|
A----------------------|
E----------------------|

Fuente original ATAME [www.atame.org]
Colaborador original: Fernando J. Ríos [lulyrios@arnet.com.ar]

Fuente: tusacordes.com