a b c d e f g h i j k l m n o p q r s t u v w x y z 0-9

El Circo Romano

La Renga

			
Intro:
|------------------6b-5-6-8-6-5-6----------------|-------5-4-5-6-5-4-5-----|-13-12-11-10-9-8-6-|
|-6-6-5----------6------------------6-8b-----5---|-----6---------------4-6-|-------------------|
|-------8-7b-6-7------------------7------8-8---8-|-7-8---------------------|-------------------|
|------------------------------------------------|-------------------------|-------------------|
|------------------------------------------------|-------------------------|-------------------|
|------------------------------------------------|-------------------------|-------------------|

|-Riff 1 x5-|                         |-Riff 2 x4-|
|-------------|-----------|-------------|-------------|
|-------9-8-6-|-----------|-----0-1-2-3-|-----0-1-2-3-|
|-5-/-7-------|-5-/-7-----|-------------|-7-----------|
|-5-/-7-------|-5-/-7-3-5-|-5-5---------|-7-5---------|
|-3-/-5-------|-3-/-5-5-7-|-5-5---------|-5-5---------|
|-------------|-------3-5-|-3-3---------|---3---------|

Con Riff 2
  D5             G5
  Necrofilia, no soy de sangre y hueso
D5                         G5
  un gato muerto en la taza de cafe
  D5            G5
  promotoras sexuales de la timba
D5                          G5
  un ciego me vende la estampita de Gardel

A5
  Y la demencia que desata la tormenta
  B5
  entre orgias de contaminacion
     G5             A5                D5
  no quiero ser uno mas del circo romano

Inter: G5 Riff 2 x3

Mariposa de taco y silocona
un decapitado me vende un geniol
un ejecutivo se ahorco con la corbata
y la cronica que pinta de terror

Y la demencia...

Solo: Riff 1 x4 D5 G5 x4 A5
      B5 G5 A5 D5 G5 x4
      G7 A7 D5 G5 x14

A donde va esa jauria rabiosa
todo por un hueso a fin de mes
sauna caballero, porno continuado
aprieten el gatillo de a uno por vez

Mas masacre en el microcentro
muere un mendigo en la puerta de un hotel
la pizza se enfria, se volco el vaso de vino
otro se acuesta en la via del tren

Y la demencia...

G5 D5 G5 x3 G5

Fuente original ATAME [www.atame.org]
Colaborador original: Mariano Manieri [ieldcs@hotmail.com]

Fuente: tusacordes.com